ZZ Top

Início > ZZ Top > acordes

La Grange (intro) Tablatura

ZZ Top

Dificultad:PrincipiantePrincipiante

por rmorgan

tuner correct add songbook print version text version salvar en e-mail
acordesukuleletablaturabajobateríaarmónicaflautacavacopiano Guitar Pro
acordes

La Grange (intro)

	    
Play this part pretty softly. 

E --------------------- 
B ---------------1-1-3-3------- 
G ---2-2-2-2-2--2-2----------  x3 
D ---2-2-2-2-2------------------ 
A ------------------------- 
E ------------------------- 

And this too. 

E ------------------------- 
B ----------------1-3------ 
G ---2-2-2-2-2--2---------- 
D ---2-2-2-2-2-------------     x9 
A ------------------------- 
E -------------------------            
  
Now start to play loud and ad the open A string. 

E ---------------------------- 
B --------------1-3------------- 
G ---2-2-2-2-2-2-------------------- 
D ---2-2-2-2-2---------------------    x11 
A ---0-0-0-0-0--------------------- 
E ---------------------------- 

	  

No existe una video leccione para esta canción

request
LosAcordes
Buscar
auto avanzar rasgueos aumentar disminuir cambiar color esconder acordes gráficos
losacordes exhibir acordes losacordes youTube video losacordes ocultar tabs losacordes ir hacia arriba losacordes