A B C D E F G H I J K L M N O P Q R S T U V X Y Z 0-9
The Sleeping

Início > The Sleepi... > acordes

The Sleeping

Don't Hold Back

Dificultad:AdelantadoAdelantado

por Indestructible

tuner corregir añadir para songbook version para impresion version de texto version rtf e-mail
acordestablaturabajobateríaarmónicaflautacavacopiano Guitar Pro
acordes

Don't Hold Back

	     Intro 

E------------------------------------------------------------------------| 
B------------------------------------------------------------------------| 
G------------------------------------------------------------------------| 
D------------------------------------------------------------------------| 
A------------------------------------------------------------------------| 
E-3^5-3^5-3^5-3^5-3^5-3^5--5-8-7-5--5-8-7-5-5^7-5^7-5^7-7^9-7^9-7^9-9^11-| 

  Verse 1 

E--------4------2-------2-6-----4-| 
B------2----4-2-----3-2-----4-6---| 
G--2-4------------4---------------| 
D---------------------------------| 
A---------------------------------| 
E---------------------------------| 

Verse 2 

E-----------------------------| 
B-----------------------------| 
G-----------------------------| 
D-----------------------------| 
A-----5-7-7-5-----------4-6-5-| 
E-5-7---------7-5-6-7-5-------| 

Bridge 

E-------------------------------12-15-| 
B-------------------------12-15-------| 
G-------------------12-15-------------| 
D-------------12-15-------------------| 
A-------12-15-------------------------| 
E-12-15-------------------------------| 

Chorus 

E-----------x-x-x-x-x---------------------------| 
B-----------x-x-x-x-x---------------7-7-7-7-6-8-| 
G-----------x-x-x-x-x---------------7-7-7-7-6-8-| 
D-2-2-2-2-2-x-x-x-x-x-3-3-3-3-3-3-3-------------| 
A-2-2-2-2-2-x-x-x-x-x-3-3-3-3-3-3-3-------------| 
E-----------x-x-x-x-x-3-3-3-3-3-3-3-------------| 
	  

Solicitar el vídeo de "Don't Hold Back" - Descargar Don't Hold Back mp3

No existe una video leccione para esta canción

solicitar
140

Envie sus comentários.

0 comentários

 
LosAcordes
Buscar
auto avanzar rasgueos aumentar disminuir cambiar color esconder acordes gráficos
losacordes exhibir acordes losacordes youTube video losacordes ocultar tabs losacordes cambiar notación losacordes ir hacia arriba losacordes