Tara Perdida

Início > Tara Perdi... > acordes

Feia Tablatura

Tara Perdida

Dificultad:PrincipiantePrincipiante

por kyhum

tuner correct add songbook print version text version salvar en e-mail
acordesukuleletablaturabajobateríaarmónicaflautacavacopiano Guitar Pro
acordes

Feia

	  Intro (Guitar 1) 
e|--------------------------------------------------| 
B|--------------------------------------------------| 
G|--8888--8-10101010--10-12121212-13-12-88-8-13-12--| 
D|-------8-----------8------------------------------| 
A|--------------------------------------------------| 
E|--------------------------------------------------| 

e|-----------------------------------------------------| 
B|-----------------------------------------------------| 
G|--8888--8-10101010--10-12121212-13-12-88-8-10-8-7-8--| 
D|-------8-----------8---------------------------------| 
A|-----------------------------------------------------| 
E|-----------------------------------------------------| 
Play whole 2 times (let ring last note on the second time) 

Intro (Guitar 2) 
e|---------------------------------------------------------| 
B|---------------------------------------------------------| 
G|--8-8-8-8-8-8--------------------------------------------| 
D|--8-8-8-8-8-8-8-8-8-8-8-8-10-10-10-10-10-10-6-6-6-6-6-6--| 
A|--6-6-6-6-6-6-8-8-8-8-8-8-10-10-10-10-10-10-6-6-6-6-6-6--| 
E|--------------6-6-6-6-6-6--8--8--8--8--8--8-4-4-4-4-4-4--| 
Play whole 4 times 

Verse (Guitar 1) 
e|---------------------------------------------------------------------| 
B|---------------------------------------------------------------------| 
G|--8*-----------------------------------------------------------------| 
D|--8*----------------8-8-8-8-8-8-8-8-8-8-8-8-6-6-6-6-6-6-8-8-8-8-8-8--| 
A|--6*----------------8-8-8-8-8-8-8-8-8-8-8-8-6-6-6-6-6-6-8-8-8-8-8-8--| 
E|--------------------6-6-6-6-6-6-6-6-6-6-6-6-4-4-4-4-4-4-6-6-6-6-6-6--| 


Chorus - Part 1 (Both guitars) 
e|-----------------------------------------------------------| 
B|-----------------------------------------------------------| 
G|--8-8-8-8-8-8-8--------------------------------------------| 
D|--8-8-8-8-8-8-8-8-8-8-8-8-8-10-10-10-10-10-10-6-6-6-6-6-6--| 
A|--6-6-6-6-6-6-6-8-8-8-8-8-8-10-10-10-10-10-10-6-6-6-6-6-6--| 
E|----------------6-6-6-6-6-6--8--8--8--8--8--8-4-4-4-4-4-4--| 


Chorus - Part 2 (Both guitars) 
e|------------------------------------------| 
B|------------------------------------------| 
G|------------------------------------------| 
D|--10101010101010-8888888-6666666-8888888--| 
A|--10101010101010-8888888-6666666-8888888--| 
E|---8-8-8-8-8-8-8-6666666-4444444-6666666--| 


Part 1 (Guitar 1) 
e|--------------------------------------------------| 
B|--------------------------------------------------| 
G|-----10-8--8-8-10-8-----10-8--13131313-12121212-8-| 
D|--888-------8--------888--------------------------| 
A|--------------------------------------------------| 
E|--------------------------------------------------| 

e|----------------------------------------------| 
B|----------------------------------------------| 
G|-8-8-10-8--8-1313-12-8-----10-8--13-13-12-12--| 
D|--8---------------------888-------------------| 
A|----------------------------------------------| 
E|----------------------------------------------| 


Part 1 (Guitar 2) 
e|------------------------------| 
B|------------------------------| 
G|--8---------------------------| 
D|--8-----8-----10-----6--------| 
A|--6-----8-----10-----6--------| 
E|--------6------8-----4--------| 
Play whole 4 times (let ring each note) 
Part 2 (Both guitars) 
e|----------------------------------------------| 
B|----------------------------------------------| 
G|--8-88-88-10-1010-1010-12-1212-1212-13-12-10--| 
D|----------------------------------------------| 
A|--6-66-66--8--8-8--8-8-10-1010-1010-11-10--8--| 
E|----------------------------------------------| 

e|-------------------------------------------------------------------| 
B|-------------------------------------------------------------------| 
G|--8-88-88-10-1010-1010-12-1212-1212-13-12-10-13-12-10-15-13-12-10--| 
D|-------------------------------------------------------------------| 
A|--6-66-66--8--8-8--8-8-10-1010-1010-11-10--8-11-10--8-13-11-10--8--| 
E|-------------------------------------------------------------------| 

End (Both guitars) 
e|------------------------------------| 
B|------------------------------------| 
G|--8---------------------------------| 
D|--8---------------------------------| 
A|--6---------------------------------| 
E|------------------------------------| 


	  

No existe una video leccione para esta canción

request
LosAcordes
Buscar
auto avanzar rasgueos aumentar disminuir cambiar color esconder acordes gráficos
losacordes exhibir acordes losacordes youTube video losacordes ocultar tabs losacordes ir hacia arriba losacordes