A B C D E F G H I J K L M N O P Q R S T U V X Y Z 0-9
System Of A Down

Início > System Of ... > acordes

System Of A Down

Revenga

Dificultad:PrincipiantePrincipiante

tuner corregir añadir para songbook version para impresion version de texto version rtf e-mail
acordestablaturabaixobateríaarmónicaflautacavacopiano Guitar Pro
acordes

Revenga

Áño: 2005 - Álbum: Mezmerize

(Malakian / Tankian)

	  Revenga 
By: DaseinMind 
 
PS: S.E. Watabashi 
 
Guitar drop C# (You guys haven't figured out that System uses this ALL THE TIME!?!?!) 
 
{Intro: Clean} 
D#-----------5-------6-------6--5--4------------------------------------| 
A#---6-------6-------7-------7--6--5------------------------------------| 
F#---7-------7-------8-------8--7--6------------------------------------| 
C#---7------------------------------------------------------------------| 
G#---5------------------------------------------------------------------| 
C#----------------------------------------------------------------------| 
 
 
{Verse 1: Trebled Distortion} x2 
    Slide  PM.............................             PM........................................ 
D#-----------------------------------------------------------------------------------------------| 
A#-----------------------------------------------------------------------------------------------| 
F#-----------------------------------------------------------------------------------------------| 
C#---------0-000---000---000---000---000-0--8-8-8------0-000---000---000-0---880--880--880--880--| 
G#---------0-000---000---000---000---000-0--8-8-8------0-000---000---000-0---880--880--880--880--| 
C#--8/3----0-000---000---000---000---000-0--8-8-8------0-000---000---000-0---880--880--880--880--| 
 
{Verse 2: Trebled Distortion} 
    PM..................................           PM................. 
D#---------------------------------------------------------------------------------------| 
A#---------------------------------------------------------------------------------------| 
F#---------------------------------------------------------------------------------------| 
C#---------------------------------------11----------------------------11---12---11-9-7--| 
G#---------------------------------------11----------------------------11---12---11-9-7--| 
C#--00000---00000---00000---00000---0000-11-------00000---00000---0000-11---12---11-9-7--| 
                                         ohhhh                         my  sweet clementine 
 
{Verse 3: Trebled Distortion} 
    PM....................           PM................... 
D#---------------------------------------------------------------------------------------| 
A#---------------------------------------------------------------------------------------| 
F#---------------------------------------------------------------------------------------| 
C#---------------------------------------------------------------------11---12---14--15--| 
G#---------------------------------------------------------------------11---12---14--15--| 
C#--00000---00000---00000---00000---0000-11--------0000---00000---0000-11---12---14--15--| 
                                         ohhhh                         oh   my sweet Re- 
 
{Chorus: Trebled Distortion} x2 
        PM.........     PM.........     PM.........     PM.........     PM.........      
            PM.........     PM......... 
D#------------------------------------------------------------------------------------| 
A#------------------------------------------------------------------------------------| 
F#------------------------------------------------------------------------------------| 
C#--0---0-0-0-0-0-0-0---0-0-0-0-0-0-7---7-7-7-7-7-7-7---7-7-7-7-7-7-8---8-8-8-8-8-8-8-| 
G#--0---0-0-0-0-0-0-0---0-0-0-0-0-0-7---7-7-7-7-7-7-7---7-7-7-7-7-7-8---8-8-8-8-8-8-8-| 
C#--0---0-0-0-0-0-0-0---0-0-0-0-0-0-7---7-7-7-7-7-7-7---7-7-7-7-7-7-8---8-8-8-8-8-8-8-| 
    Venge 
 
D#----------------------------------------------| 
A#----------------------------------------------| 
F#----------------------------------------------| 
C#--8-8-8---7---6---6-6-6-6-6-6-3---3-3-3-3-3-3-| 
G#--8-8-8---7---6---6-6-6-6-6-6-3---3-3-3-3-3-3-| 
C#--8-8-8---7---6---6-6-6-6-6-6-3---3-3-3-3-3-3-| 
 
 
 
 
{Verse 2} 
 
{Verse 3} 
 
{Chorus} x2 
 
{Verse 1} x4 
 
{Intro} 
 
{Intro 2: Clean} 
D#-----------5-------6-------6--5---------------------------------------| 
A#---6-------6-------7-------7--6--6------------------------------------| 
F#---7-------7-------8-------8--7--7------------------------------------| 
C#---7-----------------------------7------------------------------------| 
G#---5-----------------------------5------------------------------------| 
C#----------------------------------------------------------------------| 
 
{Solo: Trebled Distortion} x2 
D#---------------------------------------------------------------------------------------| 
A#---------------------------------------------------------------------------------------| 
F#------7--------------------10-----------------------8--------------------7-------------| 
C#--------7---------------------10----------------------8--------------------7-----------| 
G#---5------8--5-4-5-7-----8-------11--8-7-8-10-----6-----9--6-5-6-8-----5-----8--5-4-5--| 
C#---------------------------------------------------------------------------------------| 
 
{Chorus} x2 
 
{Verse 2} 
 
{Verse 1} x2 

	  

Solicitar el vídeo de "Revenga" - Descargar Revenga mp3

No existe una video leccione para esta canción

solicitar
140

Envie sus comentários.

0 comentários

 
LosAcordes
Buscar
auto avanzar rasgueos aumentar disminuir cambiar color esconder acordes gráficos
losacordes exhibir acordes losacordes youTube video losacordes ocultar tabs losacordes cambiar notación losacordes ir hacia arriba losacordes