A B C D E F G H I J K L M N O P Q R S T U V X Y Z 0-9
Sungha Jung

Início > Sungha Jun... > acordes

Sungha Jung

Officially Missing You

Dificultad:ExpertoExperto

por adalgomes

tuner corregir añadir para songbook version para impresion version de texto version rtf e-mail
acordestablaturabajobateríaarmónicaflautacavacopiano Guitar Pro
acordes

Officially Missing You

	  
                                                              
E||----------------3-------|----------------2-------|--------------------------| 
B||-----3--x--3------------|-----2--x--4------------|-----7h-8-x--8-------8----| 
G||-----4--x--4------------|-----2--x--2------------|-------------7------------| 
D||------------------------|------------------------|-----7h-9-x-------9-------| 
A||------------------------|-----------2-------2----|--------------------------| 
E||--3-----x--3-------3----|--2-----x---------------|--0-------x--0------------| 


                                                           
------------------------|-------------------3----|--------------------------| 
-----6--x--5------------|-----5--x--5------------|-----7h-8-x--8-------8----| 
-----7--x--4-------4----|-----4--x--4------------|-----7----x--7------------| 
--0-----x-------5-------|----------------5-------|------------------9-------| 
------------------------|--3-----x--3------------|--------------------------| 
-----------3------------|------------------------|--7-------x--7------------| 


                                         
-----------0-------0----|--x--3--3------------------| 
-----1--x--1-------1----|--x--3--3------------------| 
-----0--x-------0-------|--x-----------------0h--2--| 
------------------------|-----0--0----0h--2---------| 
--0-----x--0------------|--x------------------------| 
------------------------|---------------------------| 


                                           
---------------------------|----------------------------| 
--0------------------------|---0---1--0-----------------| 
--------2g0----------0-----|--(2)--------2--2-----0-----| 
-----0------------0--------|----------------------------| 
----------x----------x-----|----------x-----2--2--x--2--| 
--3-------x--3-------x--3--|---2------x-----------x-----| 


                                            
------------------------------|--------------------------| 
-----0--(0)--3--3g0-----------|-----1p--0-------------0--| 
-----0--(0)-------------0-----|------------2-------0-----| 
---------------------2--------|--0--------------0--------| 
---------x--------------x-----|---------x----------x-----| 
--0------x--------0-----x--0--|---------x--3-------x-----| 


  E.                                      
---------------------------|-------------------------| 
---------------------------|-----0--x--0-------------| 
--2-----x--0--------0---2--|--------x--0-------0--0--| 
--2---2-x-------2--(2)-----|----------------0--------| 
--3-----x--3--------x------|--2-----x--2-------x-----| 
--------------------x------|-------------------x-----| 


                                          
---------------------------|----------------------------| 
---------------------------|--1--1p--0---------------0--| 
-----2p-0------------0-----|--2--2------2--2p--0--------| 
----------2-------2--------|--0--0----------------------| 
--0-------x--0-------x--0--|----------------------x-----| 
----------x----------x-----|----------------------x-----| 


  E.                                       
---------------------------|----------------------------| 
---------------------------|--0-------------------------| 
--2------------------0--2--|--------2-----2-----(0)--0--| 
------0-------0h--2--------|-----0-----------1----------| 
--------x------------x-----|--------x--0--2------x------| 
--3-----x--3---------x-----|--2-----x------------x------| 


                                             
---------------------------|-------------------------------| 
---------------------------|--0--1p--0--1--1g0-------------| 
-----2p-0------------0-----|--2--------------------(0)--0--| 
----------2-------2--------|--0-----------------0----------| 
----------x----------x-----|---------x--------------x------| 
--0-------x--0-------x--0--|---------x-------3------x------| 


  E.                                      
---------------------------|-------------------------| 
---------------------------|-----0--x--0-------------| 
--2-----x--0--------0---2--|--------x--0-------0--0--| 
--2---2-x-------2--(2)-----|----------------0--------| 
--3-----x--3--------x------|--2-----x--2-------x-----| 
--------------------x------|-------------------x-----| 


                                          
---------------------------|---------------------------| 
---------------------------|--1--1p--0-----------------| 
-----2p-0------------0-----|--2--2------2--2p--0-------| 
----------2-------2--------|--0--0---------------------| 
--0-------x--0-------x--0--|----------------------x----| 
----------x----------x-----|----------------------x----| 


  ^                                                        
                                           
--2-----(2)--------2--------|--2--2--2--2--2--3--3g5--3--| 
--3-----(3)--------3--------|--2--2-----4----------------| 
----------------4-----------|----------------------------| 
----------------------------|----------------------------| 
---------x------------x-----|--------x-------------x-----| 
--3--3---x---3--------x--0--|--2-----x-------------x-----| 


                             ^           ^                 
                                            
--Lh--5--x----------3-----|--7--8--7--5--5-----5g7-------| 
------------0-------0-----|--5-----5-----0-------0--7g8--| 
------------0----0--------|--5-----------0--0------------| 
--------------------------|--0---------------------------| 
---------x----------x-----|--------x-------------x-------| 
--0------x--0-------x--0--|--------x-----3-------x-------| 


                                              
-----------7--------------|----------------------(7)--7-----| 
-----L--x--8--------8-----|--7--8--8g10--8-------(8)----10s-| 
-----9--x-----9--9--------|--7--7--------7------------------| 
--------------------------|-------------------9-------------| 
--------------------x-----|-----------x-----------x---------| 
--8-----x--8--------x--0--|--7--------x--7--------x---------| 


                                             
-------------5h-7p-5-----5-----|--8--8p--7-------------------| 
--8----L-----5-----------5-----|--8--8---------------8h--10--| 
----------------------5--------|--------------7h--9----------| 
-------5-x---------------------|--0--0-----------------------| 
--0--0---x-0-------------x--0--|-----------------------------| 
-------------------------x-----|-----------------------------| 


                                                   ^                  
                                                    
---7---------------------7--7--|-------------7----------------------| 
----------10g8-----------------|--10----10-----10-10-------(10)-----| 
----------------------0--------|-------------------8--------(8)-----| 
-------------------------------|------------------------7-----------| 
--10--10-----x--10-------x-----|---9--9----x-----------------x------| 
-------------x-----------x-----|-----------x---------7-------x---0--| 


  ^                                         ^               
                                            
--7--8--7-------------------|----------------------7--10--| 
--8-----8--10--10--8--------|--8------------8--10------0--| 
----------------------------|-----7---------0-------------| 
----------------------------|--0--------------------------| 
--------x-------------x-----|--------x--0--10------x------| 
--0-----x-------0-----x--0--|--------x-------------x------| 


                                             ^                
                        E.                    
--7------------------(7)-----|-------7-x-------------7--10--| 
--8----8-----8-------(8)-----|--10---7-x-----8--10---x------| 
-------------9----9----------|---------------7--(7)--x------| 
-----------------------------|---------------9-------x------| 
---------x------------x------|------------------------------| 
--8--8---x-8----------x---0--|---7-----x--7----------x------| 


                                                  ^       
  E.                                      
--7---------5----------7--|--7-------x---7-----------7--| 
------------5-------------|--7----10-x-8----10----8-----| 
------5-x---5----5--------|--8-----8-x-------8----8-----| 
--------------------------|-----------------------------| 
--0-----x-0---------x-----|-----------------------------| 
--------------------x-----|--7--7----x-------7----7-----| 


  ^           ^                                             
                                             
--7--8--7-----7---------------|-----7--x----7-------7-----| 
--8-----------8--10--(8)--10--|-----7--x--7g8-------8-----| 
------------------9-----------|------------------7-----0--| 
------------------------------|---------------------------| 
--------x-------------x-------|---------------------x-----| 
--8-----x--8----------x-------|--7-----x----7-------x-----| 


  ^                                           ^                
                                               
--7--7--7--10--8--7--(7)-----|--5----------------5--7--7g10--| 
--8-----8---------7--(7)-----|--5--8----------8--------------| 
--7--------------------------|-----6--(6)-----6--------------| 
-----------------------------|----------------5--------------| 
--------x-------------x---0--|--0------x---0--------x--------| 
--0-----x------0------x------|---------x------------x--------| 


                                                   
--7------x--------------(7)-----|------------------------7---7-----| 
--8----8-x---8----------(8)-----|--7--8--8g10---8-------(8)----10s-| 
-------9-x---9-------9----------|----------(7)--7------------------| 
----------------(x)-------------|--7--7--------------9-------------| 
----------------(x)------x------|-----------x------------x---------| 
--8--8---x-8-------------x---0--|--7--------x---7--------x---------| 


                                          
-------------5h-7p-5-----5-----|--8--8p--7-------5--------| 
--8----L-----5-----------5-----|--8--8--------------------| 
-------5-x------------5--------|-----------------------0--| 
-------5-x---------------------|--0--0--------------------| 
--0--0---x-0-------------x--0--|--------------x-----x-----| 
-------------------------x-----|--------------x-----x-----| 


                                         
--2-------------2--------|--2--2--2--2--2--3--3g5--3--| 
--3-------------3--------|--2--2-----4----------------| 
-------------4-----------|----------------------------| 
-------------------------|----------------------------| 
-------x-----------x-----|--------x-------------x-----| 
--3----x--3--------x--0--|--2-----x-------------x-----| 


                             ^           ^                 
                                            
--Lh--5--x----------3-----|--7--8--7--5--5-----5g7-------| 
------------0-------0-----|--5--5--5-----0-------0--7g8--| 
------------0----0--------|--5-----------0--0------------| 
--------------------------|--0---------------------------| 
---------x----------x-----|--------x-------------x-------| 
--0------x--0-------x--0--|--------x-----3-------x-------| 


                                              
-----------7--------------|----------------------(7)--7-----| 
-----L--x--8--------8-----|--7--8--8g10--8-------(8)----10s-| 
-----9--x-----9--9--------|--7--7--------7------------------| 
--------------------------|-------------------9-------------| 
--------------------x-----|-----------x-----------x---------| 
--8-----x--8--------x--0--|--7--------x--7--------x---------| 


                                             
-------------5h-7p-5-----5-----|--8--8p--7--------------------| 
--8----L-----5-----------5-----|--8--8-----------8----10------| 
-------5-x------------5--------|-----------------7--------(0)-| 
-------5-x---------------------|--0--0------------------------| 
--0--0---x-0-------------x--0--|--------------x-----x---------| 
-------------------------x-----|--------------x-----x---------| 


                 ^                                             
                                             
--8--7---8---7----------7--7--|------------------------------| 
--------(0)-----10--10-----0--|-------8-----8--Lh--10--------| 
--------(0)------0---0--------|-------9-----9----------------| 
------------------------------|------------------------------| 
--8------x------10------x-----|---------x------x-------x--0--| 
---------x--------------x-----|--8--8---x-8----x-------x-----| 


  ^              ^                                           
                                           
--8--7---8---7----------7-----|--7----------7--------------| 
--0-----(0)-----10--10--0-----|--8----8-----8-----0-----0--| 
--------(0)------0---0--------|-------9-----9-----0-----0--| 
------------------------------|-------------------0--------| 
--8------x------10------x-----|---------x------x-----------| 
---------x--------------x--0--|--8--8---x-8----x-----7-----| 


  ^                               ^                              
                                                
--5--5--7--5g7--L-------------|--------------------7--x--------| 
--5----------------10--10-----|--10--10--8--10-----7--x--10p-8-| 
--5-----------------8---8-----|---7---7--7---------------------| 
--5---------------------7-----|---9-------------0-----x--------| 
--------x---------------x-----|----------x---------------------| 
--------x-------7-------x--0--|---0------x---------------------| 


                               E.                  
--7-------------------12--|--12------12------12--------------| 
--8-----------------------|------15--15---13-13-----(0)--15--| 
--------------------------|-------------------------(0)------| 
-------x----(x)-----------|----------------------------------| 
-------x----(x)----x------|---0-------x-------0--0---x-------| 
--9----------------x------|-----------x--------------x-------| 


                                      NH             
                                           
--------------------------------|------------------| 
--15--12--x--12----13p--12------|------------------| 
----------x-----------------14--|--<>12------------| 
---0------x---0-----------------|------------------| 
--------------------------------|----------x-------| 
--------------------------------|----------x--(0)--| 


                                           
--2-----(2)--------2--------|--2--2--2--2--2--3--3g5--3--| 
--3-----(3)--------3--------|--2--2-----4----------------| 
----------------4-----------|----------------------------| 
----------------------------|----------------------------| 
---------x------------x-----|--------x-------------x-----| 
--3--3---x---3--------x--0--|--2-----x-------------x-----| 


                             ^           ^                 
                                            
--Lh--5--x----------3-----|--7--8--7--5--5-----5g7-------| 
------------0-------0-----|--5-----5-----0-------0--7g8--| 
------------0----0--------|--5-----------0--0------------| 
--------------------------|--0---------------------------| 
---------x----------x-----|--------x-------------x-------| 
--0------x--0-------x--0--|--------x-----3-------x-------| 


                                              
-----------7--------------|----------------------(7)--7-----| 
-----L--x--8--------8-----|--7--8--8g10--8-------(8)----10s-| 
-----9--x-----9--9--------|--7--7--------7------------------| 
--------------------------|-------------------9-------------| 
--------------------x-----|-----------x-----------x---------| 
--8-----x--8--------x--0--|--7--------x--7--------x---------| 


                                             
-------------5h-7p-5-----5-----|--8--8p--7---------5--Ls-3---3-| 
--8----L-----5-----------5-----|--8--8--------(8)--------------| 
----------------------5--------|-------------------------------| 
-------5-x---------------------|--0--0-------------------------| 
--0--0---x-0-------------x--0--|---------------x------x----x---| 
-------------------------x-----|---------------x------x----x---| 


                                       
--------x-------3--------|----------------2--------| 
-----------3-------------|-----2--x--4-------------| 
-----------4-------------|-----2--x--2-------------| 
-----5--x-------------0--|--------x-------------4--| 
-------------------------|-----------2-------2-----| 
--3-----x--3-------3-----|--2-----x----------------| 


                     |---3--|                                 
                                            
------------------7--7h-10p-7-----|-------------------------| 
-----7h-8-x--8----------------8---|-------6-x--5------------| 
-------------7------------------7-|-----7---x--4-------4----| 
-----7h-9-x-----------------------|--0------x-------5-------| 
----------------------------------|-------------------------| 
--0-------x--0--------------------|------------3------------| 


                                          
-------------------3----|---------------------7--7-----| 
-----5--x--5------------|-----7h-8-x--8------------10s-| 
-----4--x--4------------|-----7----x--7----------------| 
----------------5-------|------------------9-----------| 
--3-----x--3------------|------------------------------| 
------------------------|--7-------x--7----------------| 


                                           
------------5h-7p-5-----------|--8--8p--7--5--5s--3--------| 
--8----L----------------5-----|--8--8-------------------0--| 
-------5-------------5-----0--|----------------------0-----| 
-------5----------------------|--0--0----------------------| 
--0--0----0-------------------|----------------------------| 
------------------------------|----------------------------| 


  ^                   
                     
--2----------------|| 
--3----------------|| 
--4----------------|| 
-------------------|| 
-------------------|| 
--3----------------|| 

 
	  

Solicitar el vídeo de "Officially Missing You" - Descargar Officially Missing You mp3

No existe una video leccione para esta canción

solicitar
140

Envie sus comentários.

0 comentários

 
LosAcordes
Buscar
auto avanzar rasgueos aumentar disminuir cambiar color esconder acordes gráficos
losacordes exhibir acordes losacordes youTube video losacordes ocultar tabs losacordes cambiar notación losacordes ir hacia arriba losacordes