Story of The Year

Início > Story of T... > acordes

Im Live Tablatura

Story of The Year

Dificultad:Ningún gradoNingún grado

por renejunior

tuner correct add songbook print version text version salvar en e-mail
acordesukuleletablaturabajobateríaarmónicaflautacavacopiano Guitar Pro
acordes

Im Live

	  (intro / verso) 

 |---------0--------------0-------------------------| 
 |-------------0------------0-----------------------| 
 |-------8---8----------8-----8---------------------| 
 |----11-------------11-----------------------------| 
 |--0-----------------------------------------------| 
 |-----------------9--------------------------------| 

(pré-Refrão 2x) 

 |----------------------------------------------------------------| 
 |----------------------------------------------------------------| 
 |----------------------------6-xxx-6-xxx-6-xxx-6-xxx-------------| 
 |--7-xxx-7-xxx--7-xxx-7-xxx--6-xxx-6-xxx-6-xxx-6-xxx-------------|  
 |--7-xxx-7-xxx--7-xxx-7-xxx--4-xxx-4-xxx-4-xxx-4-xxx-------------| 
 |--5-xxx-5-xxx--5-xxx-5-xxx--------------------------------------| 

 |----------------------------------| 
 |----------------------------------| 
 |----4-4-4-4-4-4-4-4-4--2-2-2------| 
 |----4-4-4-4-4-4-4-4-4--2-2-2------| (4x) 
 |----2-2-2-2-2-2-2-2-2--0-0-0------| 
 |----------------------------------| 

(Refrão) 

 |------------------------------------------------------------------------| 
 |------------------------------------------------------------------------| 
 |------------------------------------------------------------------------| 
 |--666666--777777--222222222222--666666--777777--222222222222------------| 
 |--666666--777777--222222222222--666666--777777--222222222222------------| 
 |--444444--555555--000000000000--444444--555555--000000000000------------| 

 |------------------------------------------------------------------------| 
 |------------------------------------------------------------------------| 
 |--------------------------444444----------------------------------------| 
 |--666666--777777--222222--444444--666666--777777--222222222222----------| 
 |--666666--777777--222222--222222--666666--777777--222222222222----------| 
 |--444444--555555--000000----------444444--555555--000000000000----------| 

(verso) 

 |---------0--------------0-------------------------| 
 |-------------0------------0-----------------------| 
 |-------8---8----------8-----8---------------------| 
 |----11-------------11-----------------------------| 
 |--0-----------------------------------------------| 
 |-----------------9--------------------------------| 

(pré-Refrão 2x) 

 |----------------------------------------------------------------| 
 |----------------------------------------------------------------| 
 |----------------------------6-xxx-6-xxx-6-xxx-6-xxx-------------| 
 |--7-xxx-7-xxx--7-xxx-7-xxx--6-xxx-6-xxx-6-xxx-6-xxx-------------|  
 |--7-xxx-7-xxx--7-xxx-7-xxx--4-xxx-4-xxx-4-xxx-4-xxx-------------| 
 |--5-xxx-5-xxx--5-xxx-5-xxx--------------------------------------| 

 |----------------------------------| 
 |----------------------------------| 
 |----4-4-4-4-4-4-4-4-4--2-2-2------| 
 |----4-4-4-4-4-4-4-4-4--2-2-2------| (2x) 
 |----2-2-2-2-2-2-2-2-2--0-0-0------| 
 |----------------------------------| 

(Refrão) 

 |------------------------------------------------------------------------| 
 |------------------------------------------------------------------------| 
 |------------------------------------------------------------------------| 
 |--666666--777777--222222222222--666666--777777--222222222222------------| 
 |--666666--777777--222222222222--666666--777777--222222222222------------| 
 |--444444--555555--000000000000--444444--555555--000000000000------------| 

 |------------------------------------------------------------------------| 
 |------------------------------------------------------------------------| 
 |--------------------------444444----------------------------------------| 
 |--666666--777777--222222--444444--666666--777777--222222222222----------| 
 |--666666--777777--222222--222222--666666--777777--222222222222----------| 
 |--444444--555555--000000----------444444--555555--000000000000----------| 

(ponte 1) 

 |------------------------------------------------------------------------| 
 |------------------------------------------------------------------------| 
 |--6-xxxx-6-xxxx-6-xxxx-6-xxxx-6-xxxx-6-xxxx-6-xxxx-6-xxxx-444444444444--| 
 |--6-xxxx-6-xxxx-6-xxxx-6-xxxx-6-xxxx-6-xxxx-6-xxxx-6-xxxx-444444444444--| 
 |--4-xxxx-4-xxxx-4-xxxx-4-xxxx-4-xxxx-4-xxxx-4-xxxx-4-xxxx-222222222222--| 
 |------------------------------------------------------------------------| 

 |--------------------------------------------------------------------| 
 |--------------------------------------------------------------------| 
 |--222222222222--444444444444--222222--------------------------------| 
 |--222222222222--444444444444--222222--------------------------------| 
 |--000000000000--222222222222--000000--------------------------------| 
 |--------------------------------------------------------------------| 

(ponte 2) 

 |-----------------------0--------------------------| 
 |--------0----------------0------------------------| 
 |---------------------------0----------------------| 
 |------2---2----------4--------------7-------------| 
 |----2-------2------4-------------7--7-------------| 
 |--0--------------2--------------5---5-------------| 

 |----------------------------------| 
 |----------------------------------| 
 |----4-4-4-4-4-4-4-4-4--2-2-2------| 
 |----4-4-4-4-4-4-4-4-4--2-2-2------| (4x) 
 |----2-2-2-2-2-2-2-2-2--0-0-0------| 
 |----------------------------------| 

(Refrão) 

 |------------------------------------------------------------------------| 
 |------------------------------------------------------------------------| 
 |------------------------------------------------------------------------| 
 |--666666--777777--222222222222--666666--777777--222222222222------------| 
 |--666666--777777--222222222222--666666--777777--222222222222------------| 
 |--444444--555555--000000000000--444444--555555--000000000000------------| 

 |--------------------------------------------------------------| 
 |--------------------------------------------------------------| 
 |---------------------------444444-----------------------------| 
 |--6--------777777--222222--444444--666666--777777--2----------| 
 |--6--------777777--222222--222222--666666--777777--2----------| 
 |--4-BREAK--555555--000000----------444444--555555--0----------| 
	  

No existe una video leccione para esta canción

request
LosAcordes
Buscar
auto avanzar rasgueos aumentar disminuir cambiar color esconder acordes gráficos
losacordes exhibir acordes losacordes youTube video losacordes ocultar tabs losacordes ir hacia arriba losacordes