Sponge Cola

Início > Sponge Col... > acordes

Xgf Tablatura

Sponge Cola

Dificultad:Ningún gradoNingún grado

por tamamoreira

tuner correct add songbook print version text version salvar en e-mail
acordesukuleletablaturabajobateríaarmónicaflautacavacopiano Guitar Pro
acordes

Xgf

	  
INTRO: B F# G#m E (2x) 

|--------------------------------------| 
|--------------------------------------| 
|--------------------------------------| 
|-4-4-44---4-444-444-6-6-666-2-222-222-| 
|-2-2-22-0-4-444-444-6-6-666-2-222-222-| 
|--------0-2-222-222-4-4-444-0-000-000-| 


VERSE 1: B-F#-G#m-E (2x) - palm-muted 

|--------------------------------------------------------------------| 
|--------------------------------------------------------------------| 
|--------------------------------------------------------------------| 
|-----1--------------1-----------------------------------------------| 
|-2-4---2--2-4-2~--4---2-2--2-4-2~------1--------------1-------------| 
|-----------------------------------2-4---2--2-4-2~--4---2-2--2-4-2~-| 

|-------------------------------------------------------------| 
|-------------------------------------------------------------| 
|-------------------------------------------------------------| 
|---------------------------------------2---2----2-----2-2b~~-| 
|-----2------2---------2------2-------2---2----2-----2--------| 
|-4-4---4--4---4~--4-4---4--4---4~--0--------------0----------| 

|--------------------------------------------------------------------| 
|--------------------------------------------------------------------| 
|--------------------------------------------------------------------| 
|-----1--------------1-----------------------------------------------| 
|-2-4---2--2-4-2~--4---2-2--2-4-2~------1--------------1-------------| 
|-----------------------------------2-4---2--2-4-2~--4---2-2--2-4-2~-| 

|------------------------------| 
|------------------------------| 
|------------------------------| 
|---------------------------2~-| 
|----2-1----2-1---2-1---2-1-2~-| 
|-4-------4-----4-----4-----0~-| 


CHORUS: B-F#-G#m-E (2x) 

|--------------------------------------| 
|--------------------------------------| 
|--------------------------------------| 
|-4-4-44---4-444-444-6-6-666-2-222-222-| 
|-2-2-22-0-4-444-444-6-6-666-2-222-222-| 
|--------0-2-222-222-4-4-444-0-000-000-| 


VERSE 2: B-F#-G#m-E (2x) - palm-muted 

|--------------------------------------------------------------------| 
|--------------------------------------------------------------------| 
|--------------------------------------------------------------------| 
|-----1--------------1-----------------------------------------------| 
|-2-4---2--2-4-2~--4---2-2--2-4-2~------1--------------1-------------| 
|-----------------------------------2-4---2--2-4-2~--4---2-2--2-4-2~-| 

|-------------------------------------------------------------| 
|-------------------------------------------------------------| 
|-------------------------------------------------------------| 
|---------------------------------------2---2----2-----2-2b~~-| 
|-----2------2---------2------2-------2---2----2-----2--------| 
|-4-4---4--4---4~--4-4---4--4---4~--0--------------0----------| 

|--------------------------------------------------------------------| 
|--------------------------------------------------------------------| 
|--------------------------------------------------------------------| 
|-----1--------------1-----------------------------------------------| 
|-2-4---2--2-4-2~--4---2-2--2-4-2~------1--------------1-------------| 
|-----------------------------------2-4---2--2-4-2~--4---2-2--2-4-2~-| 

|------------------------------------------------| 
|------------------------------------------------| 
|-------------------------------/4-3----/4-3-----| 
|------------------------------------4-------4~~-| 
|----2-1----2-1---2-1---2-1----------------------| 
|-4-------4-----4-----4-----4~-------------------| 


REPEAT CHORUS (2x) 


RAP PART: Ebm-Bbm (4x) G#m-F#-B (4x) 

|-6-6666-6-6---6-6666-| 
|-7-7777-7-7-x-6-6666-| 
|-8-8888-8-8-x-6-6666-| 
|-8-8888-8-8-x-8-8888-| 4x 
|-6-6666-6-6-x-8-8888-| 
|--------------6-6666-| 

|--------------------| 
|--------------------| 
|--------------------| 
|-6-66-66-66-6~-4/9~-| 4x 
|-6-66-66-66-6~-4/9~-| 
|-4-44-44-44-4~-2/7~-| 


SOLO: 

|--------------------------------------------------------------| 
|-xxxx---------------------------------------------------------| 
|-xxxx-11-11-8-------11-11-8-------11-11-8---11~--8-8------8~~-| 
|-xxxx---------8h9~----------8h9~----------9----------11-9-----| 
|-xxxx---------------------------------------------------------| 
|--------------------------------------------------------------| 

|----------------------------------------------------------------| 
|-12-12-11---------12-12-11~~------------------------------12~~~-| 
|-------------11~-------------------------------------1111-------| 
|----------13------------------------------88-99-1111------------|  
|------------------------------------66-99-----------------------| 
|-------------------------------4747-----------------------------| 
                                                


REPEAT CHORUS (2x) 


OUTRO: B-F#-G#m-E (2x) 

|-------------------------------------| 
|-------------------------------------| 
|-------------------------------------| 
|-44444444-44444444-66666666-22222222-| 
|-22222222-44444444-66666666-22222222-| 
|----------22222222-44444444-00000000-| 

|-------------------------| 
|-------------------------| 
|-------------------------| 
|-44444444-44444444-6-2~~-| 
|-22222222-44444444-6-2~~-| 
|----------22222222-4-0~~-| 


 
	  

No existe una video leccione para esta canción

request
Aumentar uno tonoAumentar uno tono
Aumentar uno semi-tonoAumentar uno semi-tono
Disminuir uno semi-tonoDisminuir uno semi-tono
Disminuir uno tonoDisminuir uno semi-tono
LosAcordes
Buscar
auto avanzar rasgueos aumentar disminuir cambiar color esconder acordes gráficos
losacordes exhibir acordes losacordes youTube video losacordes ocultar tabs losacordes ir hacia arriba losacordes