A B C D E F G H I J K L M N O P Q R S T U V X Y Z 0-9
Soundgarden

Início > Soundgarde... > acordes

Soundgarden

Live To Rise

Dificultad:ExpertoExperto

por hugo_rodrigues

tuner corregir añadir para songbook version para impresion version de texto version rtf e-mail
acordestablaturabajobateríaarmónicaflautacavacopiano Guitar Pro
acordes

Live To Rise

	  
| /   slide up 
| \   slide down 
| h   hammer-on 
| p   pull-off 
| x   Mute note 



Intro 0:00-0:09 (only guitar): 
E-------------------------------------------------------------------| 
B-------------------------------------------------------------------| 
G-------------------------------------------------------------------| 
D-------------------------------------------------------------------| 
A-------------------------10p9--------------------12---10p9---------| 
E--0-0-10-10-0-0-10-0-12p0----12p0-10-10-0-0-10-0----0-----12p0-----| 


E-------------------------------------------------------------------| 
B-------------------------------------------------------------------| 
G-------------------------------------------------------------------| 
D-------------------------------------------------------------------| 
A---------------------10h12-12-12-----------------------------------| 
E--10-10-0-0-10-0-12p0----------------------------------------------| 



Intro 0:09-0:21(whole band): 
E-------------------------------------------------------------------| 
B-------------------------------------------------------------------| 
G-------------------------------------------------------------------| 
D-------------------------------------------------------------------| 
A---------------------10p9--------------------12---10p9-------------| 
E--10-10-0-0-10-0-12p0----12p0-10-10-0-0-10-0----0-----12p0---------| 


E-------------------------------------------------------------------| 
B-------------------------------------------------------------------| 
G-------------------------------------------------------------------| 
D-------------------------------------------------------------------| 
A---------------------10p9--------------------12---10p9-------------| 
E--10-10-0-0-10-0-12p0----12p0-10-10-0-0-10-0----0-----12p0---------| 



Verse(1) 0:21-0:53 (I recommend playing the verse with open chords) 


Em                    C 
What if all you understand, 
     G                          A 
Could fit into the center of our hand, 
Em                      C 
Then you found it wasn't you, 
    G                             A 
Who held the sum of everything you knew, 

C                    G 
We're insane but not alone, 
You hold on, 
          F Em  D 
And their gone, 


Chorus(1) 0:53-1:24 (power chords): 


Like the sun we will live to rise, Like the sun we will live and die, 
E-------------------------------------------------------------------| 
B-------------------------------------------------------------------| 
G--777/999-7-22--777/999-7-44--777/999-7-22--777/999-7-44-55--------| 
D--777/999-7-22--777/999-7-44--777/999-7-22--777/999-7-44-55--------| 
A--555/777-5-00--555/777-5-22--555/777-5-00--555/777-5-22-33--------| 
E-------------------------------------------------------------------| 


And then ignite again, 
E-------------------------------------------------------------------| 
B-------------------------------------------------------------------| 
G--5-5---4----------------------------------------------------------| 
D--5-5-5-4----------------------------------------------------------| 
A--3-3-5-2----------------------------------------------------------| 
E------3------------------------------------------------------------| 


Like the sun we will live to rise - 
E-------------------------------------------------------------------| 
B-------------------------------------------------------------------| 
G--777/999-7-22-55--------------------------------------------------| 
D--777/999-7-22-55--------------------------------------------------| 
A--555/777-5-00-33--------------------------------------------------| 
E-------------------------------------------------------------------| 


Agaaaain, 
E-------------------------------------------------------------------| 
B-------------------------------------------------------------------| 
G-------------------------------------------------------------------| 
D-------------------------------------------------------------------| 
A-------------------------10p9--------------------12---10p9---------| 
E--0-0-10-10-0-0-10-0-12p0----12p0-10-10-0-0-10-0----0-----12p0-----| 



Verse(2) 1:24-1:55 (open chords again): 


Em                           C 
What if the one thing that I missed, 
         G                       A 
Was everything I need to pass the test, 
Em                         C 
And if I fail what happens then, 
    G                         A 
Can I still count on you as a friend, 

C                    G 
We're insane but not alone, 
You hold on, 
          F Em  D 
And their gone, 



Chorus(2) 1:55-2:35 (power chords): 


Like the sun we will live to rise, Like the sun we will live and die, 
E-------------------------------------------------------------------| 
B-------------------------------------------------------------------| 
G--777/999-7-22--777/999-7-44--777/999-7-22--777/999-7-44-55--------| 
D--777/999-7-22--777/999-7-44--777/999-7-22--777/999-7-44-55--------| 
A--555/777-5-00--555/777-5-22--555/777-5-00--555/777-5-22-33--------| 
E-------------------------------------------------------------------| 


And then ignite again, 
E-------------------------------------------------------------------| 
B-------------------------------------------------------------------| 
G--5-5---4----------------------------------------------------------| 
D--5-5-5-4----------------------------------------------------------| 
A--3-3-5-2----------------------------------------------------------| 
E------3------------------------------------------------------------| 


Like the sun we will live to rise - 
E-------------------------------------------------------------------| 
B-------------------------------------------------------------------| 
G--777/999-7-22-55--------------------------------------------------| 
D--777/999-7-22-55--------------------------------------------------| 
A--555/777-5-00-33--------------------------------------------------| 
E-------------------------------------------------------------------| 


Again, Again, Again; 
E-------------------------------------------------------------------| 
B-----0-------------------------------------------------------------| 
G--8--0-9-7---------------------------------------------------------| 
D--8--2-9-7---------------------------------------------------------| 
A--6--2-7-5---------------------------------------------------------| 
E-----0-------------------------------------------------------------| 



Bridge 2:35-2:55 (fingerpicking part that i play in open chords): 


Warm My Face, Warm Yout Face, 
E----0-2-3-5----0-2-3-5--------------------------------------------| 
B--3-3-3-3-3--3-3-3-3-3--------------------------------------------| 
G--0-0-0-0-0--0-0-0-0-0--------------------------------------------| 
D--0-0-0-0-0--0-0-0-0-0--------------------------------------------| 
A--3-3-3-3-3--3-3-3-3-3--------------------------------------------| 
E------------------------------------------------------------------| 


Warm My Face, Warm Yout Face, 
E----0-2-3-5----0-2-3-5--------------------------------------------| 
B--3-3-3-3-3--3-3-3-3-3--------------------------------------------| 
G--0-0-0-0-0--0-0-0-0-0--------------------------------------------| 
D--2-2-2-2-2--2-2-2-2-2--------------------------------------------| 
A--0-0-0-0-0--0-0-0-0-0--------------------------------------------| 
E------------------------------------------------------------------| 


Warm My Face, Warm Yout Face, 
E----0-2-3-5----0-2-3-5--7------------------------------------------| 
B--3-3-3-3-3--3-3-3-3-3--9------------------------------------------| 
G--2-2-2-2-2--2-2-2-2-2--9------------------------------------------| 
D--0-0-0-0-0--0-0-0-0-0--9------------------------------------------| 
A------------------------7------------------------------------------| 
E-------------------------------------------------------------------| 



Solo 2:55-3:07 (didnt tab it ? only the rythm guitar): 

E-------------------------------------------------------------------| 
B-------------------------------------------------------------------| 
G-------------------------------------------------------------------| 
D-------------------------------------------------------------------| 
A---------------------10p9--------------------12---10p9-------------| 
E--10-10-0-0-10-0-12p0----12p0-10-10-0-0-10-0----0-----12p0---------| 


E-------------------------------------------------------------------| 
B-------------------------------------------------------------------| 
G-------------------------------------------------------------------| 
D-------------------------------------------------------------------| 
A---------------------10p9-------------------------10h12-12-12------| 
E--10-10-0-0-10-0-12p0----12p0-10-10-0-0-10-0-12p0------------------| 



Chorus over solo 3:07-4:02(end): 


Like the sun we will live to rise, Like the sun we will live and die, 
E-------------------------------------------------------------------| 
B-------------------------------------------------------------------| 
G--777/999-7-22--777/999-7-44--777/999-7-22--777/999-7-44-55--------| 
D--777/999-7-22--777/999-7-44--777/999-7-22--777/999-7-44-55--------| 
A--555/777-5-00--555/777-5-22--555/777-5-00--555/777-5-22-33--------| 
E-------------------------------------------------------------------| 


And then ignite again, 
E-------------------------------------------------------------------| 
B-------------------------------------------------------------------| 
G--5-5---4----------------------------------------------------------| 
D--5-5-5-4----------------------------------------------------------| 
A--3-3-5-2----------------------------------------------------------| 
E------3------------------------------------------------------------| 


Like the sun we will live to rise, Like the sun we will live and die, 
E-------------------------------------------------------------------| 
B-------------------------------------------------------------------| 
G--777/999-7-22--777/999-7-44--777/999-7-22--777/999-7-44-55--------| 
D--777/999-7-22--777/999-7-44--777/999-7-22--777/999-7-44-55--------| 
A--555/777-5-00--555/777-5-22--555/777-5-00--555/777-5-22-33--------| 
E-------------------------------------------------------------------| 


And then ignite again, 
E-------------------------------------------------------------------| 
B-------------------------------------------------------------------| 
G--5-5---4----------------------------------------------------------| 
D--5-5-5-4----------------------------------------------------------| 
A--3-3-5-2----------------------------------------------------------| 
E------3------------------------------------------------------------| 


Like the sun we will live to rise - 
E-------------------------------------------------------------------| 
B-------------------------------------------------------------------| 
G--777/999-7-22-55--------------------------------------------------| 
D--777/999-7-22-55--------------------------------------------------| 
A--555/777-5-00-33--------------------------------------------------| 
E-------------------------------------------------------------------| 


Again, Again, Again; 
E-------------------------------------------------------------------| 
B-----0-0-0---------------------------------------------------------| 
G--8--1-1-1---------------------------------------------------------| 
D--8--2-2-2---------------------------------------------------------| 
A--6--2-2-2---------------------------------------------------------| 
E-----0-0-0---------------------------------------------------------| 
	  

Solicitar el vídeo de "Live To Rise" - Descargar Live To Rise mp3

No existe una video leccione para esta canción

solicitar
Aumentar uno tonoAumentar uno tono
Aumentar uno semi-tonoAumentar uno semi-tono
Disminuir uno semi-tonoDisminuir uno semi-tono
Disminuir uno tonoDisminuir uno semi-tono
140

Envie sus comentários.

1 comentários

BrasspianoBrasspiano
hace 752 años atrás
Chord above "We're insane" is A minor not C. It's the relative minor to C.
 
LosAcordes
Buscar
auto avanzar rasgueos aumentar disminuir cambiar color esconder acordes gráficos
losacordes exhibir acordes losacordes youTube video losacordes ocultar tabs losacordes cambiar notación losacordes ir hacia arriba losacordes