Sleeping With Sirens

Início > Sleeping W... > acordes

We Like It Loud Tablatura

Sleeping With Sirens

Dificultad:Ningún gradoNingún grado

por tamamoreira

tuner correct add songbook print version text version salvar en e-mail
acordesukuleletablaturabajobateríaarmónicaflautacavacopiano Guitar Pro
acordes

We Like It Loud

	   
intro 
eb |----------------------------------------------| 
Bb |----------------------------------------------| 
Gb |----------------------------------------------| 
Db |-----9 9 9---12 12 12-------------------------| 
Ab |-----7 7 7 --10 10 10----12----12 12---12-----| 
Eb |----------------------------10----10 10---10--| 

eb |-------------------------------------| 
Bb |-------------------------------------| 
Gb |-------------------------------------| 
Db |-------------------------------------| 
Ab |----10----99999999/1010101010101010--| 
Eb |----8----77777777/--88888888---------| 

eb |---------------------------------------| 
Bb |---------------------------------------| 
Gb |--999999999999/12121212-999999999999/--| 
Db |--777777777777/10101010-777777777777/--| 
Ab |---------------------------------------| 
Eb |---------------------------------------| 

eb |------------------------------------------------| 
Bb |------------------------------------------------| 
Gb |--8888-999999999999/12121212/14141414/16161616--| 
Db |--6666-777777777777/10101010/12121212/14141414--| 
Ab |------------------------------------------------| 
Eb |------------------------------------------------| 
Verse:(this is all plam muted)                          (3rd time) 
eb |-----------------------------------------------|---------------------| 
Bb |-----------------------------------------------|---------------------| 
Gb |-----------------------------------------------|---------------------| 
Db |----999---121212---------------------------|-------------------------| 
Ab |----777---101010---12--1212---12----10 |--9999999/ 1010101010101010--| 
Eb |-----------------------10--1010---10----8--|--7777777/88888888-------| 
(still muted) 
eb |-----------------------------------------| 
Bb |-----------------------------------------| 
Gb |--99999999999999/12121212 999999999999\--| 
Db |--77777777777777/10101010-777777777777\--| 
Ab |-----------------------------------------| 
Eb |-----------------------------------------| 

eb |--------------------------------------------------| 
Bb |--------------------------------------------------| 
Gb |---8888--999999999999/12121212/14141414/16161616--| 
Db |---6666--777777777777/10101010/12121212/14141414--| 
Ab |--------------------------------------------------| 
Eb |--------------------------------------------------| 
 
	  

No existe una video leccione para esta canción

request
LosAcordes
Buscar
auto avanzar rasgueos aumentar disminuir cambiar color esconder acordes gráficos
losacordes exhibir acordes losacordes youTube video losacordes ocultar tabs losacordes ir hacia arriba losacordes