Sleeping With Sirens

Início > Sleeping W... > acordes

Jesus In The Southern Sky Tablatura

Sleeping With Sirens

Dificultad:PrincipiantePrincipiante

por joaoewerton

tuner correct add songbook print version text version salvar en e-mail
acordesukuleletablaturabajobateríaarmónicaflautacavacopiano Guitar Pro
acordes

Jesus In The Southern Sky

	  


Verse: 

e|--0----0----0----0----0----0----0---| 
B|--0----0----0----0----0----0----0---| 
G|--9----9----6----4----2----4----9---| 
D|--9----8----6----4----2----4----9---| 
A|--7----6----4----2----0----0----0---| 
E|--0----0----0----0----0----0----0---| 

e|--0----0----0----0----0----0----0---| 
B|--0----0----0----0----0----0----0---| 
G|--9----9----6----4----2----4----2---| 
D|--9----8----6----4----2----4----2---| 
A|--7----6----4----2----0----0----0---| 
E|--0----0----0----0----0----0----0---| 


Chorus: 

e|--0----0----0----0----0----0----0----0----0----0---| 
B|--0----0----0----0----0----0----0----0----0----0---| 
G|--6----2----4----2----6----9----9----6----4----2---| 
D|--6----2----4----2----6----8----9----6----4----2---| 
A|--4----0----2----0----4----6----7----4----2----0---| 
E|--0----0----0----0----0----0----0----0----0----0---| 


Bridge: 

e|--0----0----0----0---| 
B|--0----0----0----0---| 
G|--2----4----6----4---| 
D|--2----4----6----4---| 
A|--0----0----4----2---| 
E|--2----4----0----0---| 
 
	  

No existe una video leccione para esta canción

request
LosAcordes
Buscar
auto avanzar rasgueos aumentar disminuir cambiar color esconder acordes gráficos
losacordes exhibir acordes losacordes youTube video losacordes ocultar tabs losacordes ir hacia arriba losacordes