Sleeping With Sirens

Início > Sleeping W... > acordes

Heaven Again Tablatura

Sleeping With Sirens

Dificultad:IntermedioIntermedio

por jov-correa

tuner correct add songbook print version text version salvar en e-mail
acordesukuleletablaturabajobateríaarmónicaflautacavacopiano Guitar Pro
acordes

Heaven Again

	  

 (Intro) 
D|---------------------------------------------------------------| 
A|-2-2--3--3-3--x-x-x---x-x-x-x-2-2--3--3-3--x-x-x-7--7-x-5--5-x-| 
F|-2-2--4--4-4--x-x-x---x-x-x-x-2-2--4--4-4--x-x-x-7--7-x-6--6-x-| 
C|-0-0--0--0-0--x-x-x---x-x-x-x-0-0--0--0-0--x-x-x-0--0-x-0--0-x-| 
G|-4-4--5--5-5--x-x-x---x-x-x-x-4-4--5--5-5--x-x-x-9--9-x-7--7-x-| 
C|-4-4--5--5-5--x-x-x---x-x-x-x-4-4--5--5-5--x-x-x-9--9-x-7--7-x-| 

D|----------------------------------------------------------| 
A|-2--3-3--x-x-x-x-x-x-x-x-2-2--3--3-3--x-x-x-7--7-x-5--5-x-| 
F|-2--4-4--x-x-x-x-x-x-x-x-2-2--4--4-4--x-x-x-7--7-x-6--6-x-| 
C|-0--0-0--x-x-x-x-x-x-x-x-0-0--0--0-0--x-x-x-0--0-x-0--0-x-| 
G|-4--5-5--x-x-x-x-x-x-x-x-4-4--5--5-5--x-x-x-9--9-x-7--7-x-| 
C|-4--5-5--x-x-x-x-x-x-x-x-4-4--5--5-5--x-x-x-9--9-x-7--7-x-| 


 (Verse) 
D|----------------------------------------------------------| 
A|-2--3-3--x-x-x---x-x-x-x-2-2--2--3-3--x-x-x-7--7-x-5--5-x-| 
F|-2--4-4--x-x-x---x-x-x-x-2-2--2--4-4--x-x-x-7--7-x-6--6-x-| 
C|-0--0-0--x-x-x---x-x-x-x-0-0--0--0-0--x-x-x-0--0-x-0--0-x-| 
G|-4--5-5--x-x-x---x-x-x-x-4-4--4--5-5--x-x-x-9--9-x-7--7-x-| 
C|-4--5-5--x-x-x---x-x-x-x-4-4--4--5-5--x-x-x-9--9-x-7--7-x-| 

D|----------------------------------------------------------| 
A|-2--3-3--x-x-x-x-x-x-x-x-2-2--2--3-3--x-x-x-7--7-x-5--5-x-| 
F|-2--4-4--x-x-x-x-x-x-x-x-2-2--2--4-4--x-x-x-7--7-x-6--6-x-| 
C|-0--0-0--x-x-x-x-x-x-x-x-0-0--0--0-0--x-x-x-0--0-x-0--0-x-| 
G|-4--5-5--x-x-x-x-x-x-x-x-4-4--4--5-5--x-x-x-9--9-x-7--7-x-| 
C|-4--5-5--x-x-x-x-x-x-x-x-4-4--4--5-5--x-x-x-9--9-x-7--7-x-| 

D|----------------------------------------------------------| 
A|-2--3-3--x-x-x---x-x-x-x-2-2--2--3-3--x-x-x-7--7-x-5--5-x-| 
F|-2--4-4--x-x-x---x-x-x-x-2-2--2--4-4--x-x-x-7--7-x-6--6-x-| 
C|-0--0-0--x-x-x---x-x-x-x-0-0--0--0-0--x-x-x-0--0-x-0--0-x-| 
G|-4--5-5--x-x-x---x-x-x-x-4-4--4--5-5--x-x-x-9--9-x-7--7-x-| 
C|-4--5-5--x-x-x---x-x-x-x-4-4--4--5-5--x-x-x-9--9-x-7--7-x-| 

D|----------------------------------------------------------| 
A|-2--3-3--x-x-x-x-x-x-x-x-2-2--2--3-3--x-x-x-7--7-x-5-5-5--| 
F|-2--4-4--x-x-x-x-x-x-x-x-2-2--2--4-4--x-x-x-7--7-x-6-6-6--| 
C|-0--0-0--x-x-x-x-x-x-x-x-0-0--0--0-0--x-x-x-0--0-x-0-0-0--| 
G|-4--5-5--x-x-x-x-x-x-x-x-4-4--4--5-5--x-x-x-9--9-x-7-7-7--| 
C|-4--5-5--x-x-x-x-x-x-x-x-4-4--4--5-5--x-x-x-9--9-x-7-7-7--| 


 (Chorus) These are the Chords but the strum pattern varies along with the palm mutes, 
you'll get the idea... 
D|--------------------| x4 
A|-3--------7----2----| 
F|-4--------7----2----| 
C|-0--------0----0----| 
G|-5--------9----4----| 
C|-5--------9----4----| 


  (Intro to Verse 2) 
D|------------------------------------------------------------| 
A|-2--3-3--x-x-x---x-x-x-x-2-2--2--3-3--x-x-x-7--7-x-10--10-x-| 
F|-2--4-4--x-x-x---x-x-x-x-2-2--2--4-4--x-x-x-7--7-x-11--11-x-| 
C|-0--0-0--x-x-x---x-x-x-x-0-0--0--0-0--x-x-x-0--0-x-0---0--x-| 
G|-4--5-5--x-x-x---x-x-x-x-4-4--4--5-5--x-x-x-9--9-x-12--12-x-| 
C|-4--5-5--x-x-x---x-x-x-x-4-4--4--5-5--x-x-x-9--9-x-12--12-x-| 

D|----------------------------------------------------------| 
A|-2--3-3--x-x-x-x-x-x-x-x-2-2--2--3-3--x-x-x-7--7-x-5--5-x-| 
F|-2--4-4--x-x-x-x-x-x-x-x-2-2--2--4-4--x-x-x-7--7-x-6--6-x-| 
C|-0--0-0--x-x-x-x-x-x-x-x-0-0--0--0-0--x-x-x-0--0-x-0--0-x-| 
G|-4--5-5--x-x-x-x-x-x-x-x-4-4--4--5-5--x-x-x-9--9-x-7--7-x-| 
C|-4--5-5--x-x-x-x-x-x-x-x-4-4--4--5-5--x-x-x-9--9-x-7--7-x-| 

 (Verse 2) 

D|----------------------------------------------------------| 
A|-2--3-3--x-x-x---x-x-x-x-2-2--2--3-3--x-x-x-7--7-x-5--5-x-| 
F|-2--4-4--x-x-x---x-x-x-x-2-2--2--4-4--x-x-x-7--7-x-6--6-x-| 
C|-0--0-0--x-x-x---x-x-x-x-0-0--0--0-0--x-x-x-0--0-x-0--0-x-| 
G|-4--5-5--x-x-x---x-x-x-x-4-4--4--5-5--x-x-x-9--9-x-7--7-x-| 
C|-4--5-5--x-x-x---x-x-x-x-4-4--4--5-5--x-x-x-9--9-x-7--7-x-| 

D|----------------------------------------------------------| 
A|-2--3-3--x-x-x-x-x-x-x-x-2-2--2--3-3--x-x-x-7--7-x-5--5-x-| 
F|-2--4-4--x-x-x-x-x-x-x-x-2-2--2--4-4--x-x-x-7--7-x-6--6-x-| 
C|-0--0-0--x-x-x-x-x-x-x-x-0-0--0--0-0--x-x-x-0--0-x-0--0-x-| 
G|-4--5-5--x-x-x-x-x-x-x-x-4-4--4--5-5--x-x-x-9--9-x-7--7-x-| 
C|-4--5-5--x-x-x-x-x-x-x-x-4-4--4--5-5--x-x-x-9--9-x-7--7-x-| 

D|----------------------------------------------------------| 
A|-2--3-3----x---x---x---x-2-2--2--3-3--x-x-x-7--7-x-5--5-x-| 
F|-2--4-4----x---x---x---x-2-2--2--4-4--x-x-x-7--7-x-6--6-x-| 
C|-0--0-0----x---x---x---x-0-0--0--0-0--x-x-x-0--0-x-0--0-x-| 
G|-4--5-5----x---x---x---x-4-4--4--5-5--x-x-x-9--9-x-7--7-x-| 
C|-4--5-5----x---x---x---x-4-4--4--5-5--x-x-x-9--9-x-7--7-x-| 

D|----------------------------------------------------------| 
A|-2--3-3--x-x-x-x-x-x-x-x-2-2--2--3-3--x-x-x-7--7-x-5--5-x-| 
F|-2--4-4--x-x-x-x-x-x-x-x-2-2--2--4-4--x-x-x-7--7-x-6--6-x-| 
C|-0--0-0--x-x-x-x-x-x-x-x-0-0--0--0-0--x-x-x-0--0-x-0--0-x-| 
G|-4--5-5--x-x-x-x-x-x-x-x-4-4--4--5-5--x-x-x-9--9-x-7--7-x-| 
C|-4--5-5--x-x-x-x-x-x-x-x-4-4--4--5-5--x-x-x-9--9-x-7--7-x-| 


 (Chorus) 
D|--------------------| x4 
A|-3--------7----2----| 
F|-4--------7----2----| 
C|-0--------0----0----| 
G|-5--------9----4----| 
C|-5--------9----4----| 


 (Bridge) 
D|---------------------| x2 
A|-1----3----7----5----| 
F|-2----4----7----6----| 
C|-0----0----0----0----| 
G|-3----5----9----7----| 
C|-3----5----9----7----| 

D|---------------------------------------------------------------| 
A|-2-2--3--3-3--x-x-x---x-x-x-x-2-2--2--3-3--x-x-x-7--7-x-5--5-x-| 
F|-2-2--4--4-4--x-x-x---x-x-x-x-2-2--2--4-4--x-x-x-7--7-x-6--6-x-| 
C|-0-0--0--0-0--x-x-x---x-x-x-x-0-0--0--0-0--x-x-x-0--0-x-0--0-x-| 
G|-4-4--5--5-5--x-x-x---x-x-x-x-4-4--4--5-5--x-x-x-9--9-x-7--7-x-| 
C|-4-4--5--5-5--x-x-x---x-x-x-x-4-4--4--5-5--x-x-x-9--9-x-7--7-x-| 

D|-------------------------------------------------------------| 
A|-2--3-3--x-x-x-x-x-x-x-x-x-x-x-x-2--3-3--x-x-x-7--7-x-10--10-| 
F|-2--4-4--x-x-x-x-x-x-x-x-x-x-x-x-2--3-3--x-x-x-7--7-x-11--11-| 
C|-0--0-0--x-x-x-x-x-x-x-x-x-x-x-x-0--0-0--x-x-x-0--0-x-0---0--| 
G|-4--5-5--x-x-x-x-x-x-x-x-x-x-x-x-4--5-5--x-x-x-9--9-x-12--12-| 
C|-4--5-5--x-x-x-x-x-x-x-x-x-x-x-x-4--5-5--x-x-x-9--9-x-12--12-| 

D|----------------------------------------------------------| 
A|-2--3-3--x-x-x---x-x-x-x-2-2--2--3-3--x-x-x-7--7-x-5--5-x-| 
F|-2--4-4--x-x-x---x-x-x-x-2-2--2--4-4--x-x-x-7--7-x-6--6-x-| 
C|-0--0-0--x-x-x---x-x-x-x-0-0--0--0-0--x-x-x-0--0-x-0--0-x-| 
G|-4--5-5--x-x-x---x-x-x-x-4-4--4--5-5--x-x-x-9--9-x-7--7-x-| 
C|-4--5-5--x-x-x---x-x-x-x-4-4--4--5-5--x-x-x-9--9-x-7--7-x-| 

D|----------------------------------------------------------| 
A|-2--3-3--x-x-x-x-x-x-x-x-2-2--3--3-3--x-x-x-7--7-x-5-5-5--| 
F|-2--4-4--x-x-x-x-x-x-x-x-2-2--4--4-4--x-x-x-7--7-x-6-6-6--| 
C|-0--0-0--x-x-x-x-x-x-x-x-0-0--0--0-0--x-x-x-0--0-x-0-0-0--| 
G|-4--5-5--x-x-x-x-x-x-x-x-4-4--5--5-5--x-x-x-9--9-x-7-7-7--| 
C|-4--5-5--x-x-x-x-x-x-x-x-4-4--5--5-5--x-x-x-9--9-x-7-7-7--| 


 (Chorus) 
D|--------------------| x4 
A|-3--------7----2----| 
F|-4--------7----2----| 
C|-0--------0----0----| 
G|-5--------9----4----| 
C|-5--------9----4----| 

 (Outro) 
D|---------| 
A|-2--3-3--| 
F|-2--4-4--| 
C|-0--0-0--| 
G|-4--5-5--| 
C|-4--5-5--| 
	  

No existe una video leccione para esta canción

request
LosAcordes
Buscar
auto avanzar rasgueos aumentar disminuir cambiar color esconder acordes gráficos
losacordes exhibir acordes losacordes youTube video losacordes ocultar tabs losacordes ir hacia arriba losacordes