Sleeping With Sirens

Início > Sleeping W... > acordes

Don't You Every Forget About Me Tablatura

Sleeping With Sirens

Dificultad:Ningún gradoNingún grado

por aman_claudino

tuner correct add songbook print version text version salvar en e-mail
acordesukuleletablaturabajobateríaarmónicaflautacavacopiano Guitar Pro
acordes

Don't You Every Forget About Me

	  
Capo 6


Intro/Verse: 
|---3----3----3----2----| 
|---3----3----3----3----| 
|---0----0----0----2----| 
|---0----0----2---------| 
|---2----0----3---------| 
|---3----1--------------| 
The hardest thing..... 


Chorus: 
|---3---3---3---2---3---3---3---3---| 
|---3---3---3---3---3---3---3---3---| 
|---0---0---0---2---0---0---2---0---| 
|---0---2---2-------2---2---0---2---| 
|---2---3---2-------3---2---0---3---| 
|---3-----------------------2-------| 
So don't you...             ...I haunt your dreams at night 

|----------3-------------------3---| 
|----------3-------------------3---| 
|----------0-------------------0---| 
|----------0-------------------2---|   (x2) 
|----------2-------------------3---| 
|----------3-----------------------|  
So don't you ever forget about me... 


Bridge: 
|---3---2--3-----3---2--3--| 
|---3---3--3-----3---3--3--| 
|---0---2--0-----0---2--0--| 
|---2------2-----2------2--|   (x2) 
|---2------3-----2------3--| 
|--------------------------| 
      Will you take me back... 
|---3---2--3--| 
|---3---3--3--| 
|---0---2--2--| 
|---2------0--| 
|---2------3--| 
|-------------| 
But I don't know how... 

                    
 
	  

No existe una video leccione para esta canción

request
LosAcordes
Buscar
auto avanzar rasgueos aumentar disminuir cambiar color esconder acordes gráficos
losacordes exhibir acordes losacordes youTube video losacordes ocultar tabs losacordes ir hacia arriba losacordes