Sleeping With Sirens

Início > Sleeping W... > acordes

Big Gulps Huh?... Well, See You Later (acoustic) Tablatura

Sleeping With Sirens

Dificultad:ExpertoExperto

por carlluz

tuner correct add songbook print version text version salvar en e-mail
acordesukuleletablaturabajobateríaarmónicaflautacavacopiano Guitar Pro
acordes

Big Gulps Huh?... Well, See You Later (acoustic)

	  

Tuning: C# 


Intro (i'm coming home...) 

e|----------X------------X-----0-----X-----X----0-----------X-----------X------| 
B|----------3------------3-----0-----0-----0----0-----------3-----------3------| 
G|----------0------------0-----0-----4-----2----0-----------0-----------0------| 
D|------2---2-------2----2-----2-----5-----0----0-------2---2-------2---2------| 
A|---3------3----0-------0-----2-----0-----0----0----3------3----0------0------| 
E|----------X------------X-----0-----X-----X----0-----------X-----------X------| 

e|-------------X--------------------| 
B|-------------0--------------------| 
G|-------------0----------------0---| 
D|--------5----5----4---4-----4-----| 
A|---5---h7----7----5------5--------| 
E|---0----X----X----X---------------| 


Verse (apologize...) 

e|----0----0--------------0--------3------| 
B|----0----0-----------------3------------| 
G|----0----0-(palm mute)--------0---------|  x2 
D|----2----2------------------------------| 
A|----2----2------------------------------| 
E|----0----0------------------------------| 

e|----X---0--------3----0-----X------| 
B|----3------3----------0-----X------| 
G|----0---------0-------4-----7------| 
D|----2-----------------5-----7------| 
A|----3-----------------5-----5------| 
E|----0-----------------0-----X------| 

e|----0----0--------------0---------------| 
B|----0----0-----------------3-----3------| 
G|----0----0-(palm mute)--------0---------|  x2 
D|----2----2------------------------------| 
A|----2----2------------------------------| 
E|----0----0------------------------------| 

e|----X----0-------------0-----X-----| 
B|----3-------3-----3----0-----X-----| 
G|----0----------0-------4-----7-----| 
D|----2------------------5-----7-----| 
A|----3------------------5-----5-----| 
E|----0------------------0-----X-----| 

e|----0----0--------------0---------------| 
B|----0----0-----------------3-----3------| 
G|----0----0-(palm mute)--------0---------|  x2 
D|----2----2------------------------------| 
A|----2----2------------------------------| 
E|----0----0------------------------------| 

e|----X----0-------------0-----X-----| 
B|----3-------3-----3----0-----X-----| 
G|----0----------0-------4-----7-----| 
D|----2------------------5-----7-----| 
A|----3------------------5-----5-----| 
E|----0------------------0-----X-----| 

e|----0----0--------------0---------------| 
B|----0----0-----------------3-----3------| 
G|----0----0-(palm mute)--------0---------|  x2 
D|----2----2------------------------------| 
A|----2----2------------------------------| 
E|----0----0------------------------------| 

e|----X----0--------------0-----| 
B|----3-------3-----3-----0-----| 
G|----0----------0--------4-----| 
D|----2-------------------5-----| 
A|----3-------------------5-----| 
E|----0-------------------0-----| 


Chorus (i'm coming home...) 

e|-----------X----------X---------------0------------------X-------| 
B|-----------3----------3---------------0---3-------0------0-------| 
G|-----------0----------0---------------0------0-----------0-------| 
D|-------2---2------2---2----------5----5--------4---------4-------| 
A|----3------3---0------0-----5----7----7------------------5-------| 
E|-----------X----------X-----0----X----X------------------X-------| 

e|-----------X----------X-----0-----X------| 
B|-----------3----------3-----0-----0------| 
G|-----------0----------0-----0-----4------| 
D|-------2---2------2---2-----5-----4------| 
A|----3------3---0------0-----7-----5------| 
E|-----------X----------X-----X-----X------| 


Bridge (all those who hate me made me...) 
(few palm mutes+hammer-ons here, watch the video to get a better idea of the rhythm) 

e|---X----X---X---X---X---X----X---X---X----X---X------| 
B|---X----X---X---X---X---X----X---X---X----X---X------| 
G|---0----0---X---0---X---0----0---0---0----0---0------| 
D|---2----2---X---0---X---0---h2---0---2----2---0------| 
A|---2----2---X---0---X---0---h2---0---2----2---0------| 
E|---0----0---X---0---X---0----0---0---0----0---0------| 

e|---0---0---X---0---0---0---0---0---X---0---0---X---0---0---0----| 
B|---0---0---X---0---0---0---0---0---X---0---0---X---0---0---0----| 
G|---0---0---X---0---0---0---0---0---X---0---0---X---0---0---0----|  repeat 5 times 
D|---2---2---X---2---0---0---4---4---X---4---4---X---4---4---0----| 
A|---3---3---X---3---0---0---5---5---X---5---5---X---5---5---0----| 
E|---0---0---X---0---0---0---0---0---X---0---0---X---0---0---0----| 


Chorus (i'm coming home...) 

e|----X----------X----X----X------|                
B|----3----------3----0----0------|                
G|----0----------0----0----0------|  x2   
D|----2------2---2----5----4------|                 
A|----3---0------0----7----5------|              
E|----X----------X----X----5------|                


 
	  

No existe una video leccione para esta canción

request
LosAcordes
Buscar
auto avanzar rasgueos aumentar disminuir cambiar color esconder acordes gráficos
losacordes exhibir acordes losacordes youTube video losacordes ocultar tabs losacordes ir hacia arriba losacordes