A B C D E F G H I J K L M N O P Q R S T U V X Y Z 0-9
Simple Plan

Início > Simple Pla... > acordes

Simple Plan

Perfect

Dificultad:PrincipiantePrincipiante

por zeak96799

tuner corregir añadir para songbook version para impresion version de texto version rtf e-mail
acordestablaturabajobateriaarmónicaflautacavacopiano Guitar Pro
acordes

Perfect

Tono:  D Más
Perfect Tono G#G#
Perfect Tono AA
Perfect Tono A#A#
Perfect Tono BB
Perfect Tono CC(Disminuir uno tono)
Perfect Tono C#C#(Disminuir uno semi-tono)
Perfect Tono DD(tono original)
Perfect Tono D#D#(Aumentar uno semi-tono)
Perfect Tono EE(Aumentar uno tono)
Perfect Tono FF
Perfect Tono F#F#
Perfect Tono GG
	  Tuning:Standard(e b g d a e) 
 
 
Intro: 
E|-------------------------------------------| 
B|-------------------------------------------| 
G|-9--8--9---2--1------9--8--11--13--2--1----| 
D|-9--9--9---2--2--2---9--9----------2--2--2-| 
A|-7--7--7---0--0------7--7----------0--0----| 
E|-------------------------------------------| 
 
I don't know the second part so figure it out yourself 
 
Verse 1: 
E|----------------------------------------| 
B|----------------------------------------| 
G|-9--8--9--2--2----9--8--9--2--1--2-1--1-| 
D|-9--9--9--2--2-2--9--9--9--2--2------2--| 
A|----------------------------------------| 
E|----------------------------------------| 
   Hey Dad.... 
 
E|--------------------------------------| 
B|--------------------------------------| 
G|-9--9--8--2--1--8--9--9-8--8--2-8-9-9-| 
D|-9--9--9--2--2--9--9----------2-------| 
A|--------------------------------------| 
E|--------------------------------------| 
  And do you think.... 
 
Pre-Chorus: 
E|------------------------------------------------------| 
B|------------------------------------------------------| 
G|-----9-9-9--9--9-------9-9-9--9--9--9--9-9--9-9--9--9-|  
D|9-9--9-9-9--9--9--7-9--9-9-9--9--9--9--9-9--9-9--9--9-|  
A|-----7-7-7--7--7-------7-7-7--7--7--7--7-7--7-7--7--7-| 
E|------------------------------------------------------| 
  And now....  
 
E|--------------------------------------------------------| 
B|--------------------------------------------------------| 
G|-----9-9-9--9--9-------9-9-9--9--9--9--9-9--9-9--9--9---|  
D|9-9--9-9-9--9--9--7-9--9-9-9--9--9--9--9-9--9-9--9--9-9-|  
A|-----7-7-7--7--7-------7-7-7--7--7--7--7-7--7-7--7--7-9-| 
E|------------------------------------------------------7-| 
   Can't pretend.... 
 
Chorus 1: 
E|----------------------------| 
B|----------------------------| 
G|-9--8---2-9-8--2-8-9--2-9-8-| 
D|--------2------2------2-----| 
A|----------------------------| 
E|----------------------------| 
    Cuz we lost.... 
 
E|--------------------------| 
B|--------------------------| 
G|-9--8---2-9-8--2-8-9--9---| 
D|--------2------2----------| 
A|--------------------------| 
E|--------------------------| 
     Now its just.... 
 
repeat second half of the Intro if you know it 
 
Verse 2 
E|-----------------------------------------------------| 
B|-----------------------------------------------------| 
G|-9-8--11-13-2--2-----1-2-1--9--2-2--8-9-8--2-1---2-1-|          
D|-----------------2-2---------------------------2-----| 
A|-----------------------------------------------------| 
E|-----------------------------------------------------| 
    I try not to.... 
 
E|-----------------------------------| 
B|-----------------------------------| 
G|-9-8-9--2--1-8--9-8--11-13-2-11-13-| 
D|-----------------------------------| 
A|-----------------------------------| 
E|-----------------------------------| 
   All the days.... 
 
           {repeat Pre-Chorus} 
                               G|-9-| 
 {repeat Chorus 1 and end with D|-9-|8x} 
                               A|-7-| 
 
Bridge: 
E|-------------------------xxxx---|repeat 
B|-------------------------xxxx---| 
G|-7-7-7-7--9-9-9--2--2-2--xxxx-2-| 
D|-7-7-7-7--9-9-9--2--2-2--xxxx-2-| 
A|-5-5-5-5--7-7-7--0--0-0--xxxx-0-| 
E|-------------------------xxxx---| 
    Nothing's gonna.... 
 
E|---------------------------------|repeat 
B|---------------------------------| 
G|-7-7-7-7-7-7-7-7-9-9-9-9-9-9-9-9-| 
D|-7-7-7-7-7-7-7-7-9-9-9-9-9-9-9-9-| 
A|-5-5-5-5-5-5-5-5-7-7-7-7-7-7-7-7-| 
E|---------------------------------| 
    Please don't.... 
 
E|-------------------| 
B|-------------------| 
G|-7-7-7-7-7-7-7-7-7-| 
D|-7-7-7-7-7-7-7-7-7-| 
A|-5-5-5-5-5-5-5-5-5-| 
E|-------------------| 
 
        {repeat the first part of the intro} 
    
Chorus 2: 
E|---------------------------------| 
B|---------------------------------| 
G|-9-9-9-9-9-9-9-9-----------------| 
D|-9-9-9-9-9-9-9-9-9-9-9-9-9-9-9-9-| 
A|-7-7-7-7-7-7-7-7-9-9-9-9-9-9-9-9-| 
E|-----------------7-7-7-7-7-7-7-7-| 
    Cuz we lost....  
 
E|---------------------------------| 
B|---------------------------------| 
G|-6-6-6-6-6-6-6-6-2-2-2-2-2-2-2-2-| 
D|-6-6-6-6-6-6-6-6-2-2-2-2-2-2-2-2-| 
A|-4-4-4-4-4-4-4-4-0-0-0-0-0-0-0-0-| 
E|---------------------------------| 
    I'm sorry.... 
 
E|---------------------------------| 
B|---------------------------------| 
G|-9-9-9-9-9-9-9-9-----------------| 
D|-9-9-9-9-9-9-9-9-9-9-9-9-9-9-9-9-| 
A|-7-7-7-7-7-7-7-7-9-9-9-9-9-9-9-9-| 
E|-----------------7-7-7-7-7-7-7-7-| 
    Cuz we lost.... 
 
E|-------------------| 
B|-------------------| 
G|-6-6-6-6-6-6-6-6-2-| 
D|-6-6-6-6-6-6-6-6-2-| 
A|-4-4-4-4-4-4-4-4-0-| 
E|-------------------| 
    I'm sorry.... 
 
 
Verse 1: 
 
Hey dad look at me 
Think back and talk to me 
Did I grow up according to plan? 
And do you think I'm wasting my time doing things I wanna do? 
But it hurts when you disapprove all along 
 
Pre-Chorus: 
 
And now I try hard to make it 
I just want to make you proud 
I'm never gonna be good enough for you 
I can't pretend that 
I'm alright 
And you can't change me 
 
Chorus: 
 
'Cuz we lost it all  
Nothing lasts forever 
I'm sorry  
I can't be perfect 
Now it's just too late and  
We can't go back 
I'm sorry  
I can't be perfect 
 
Verse 2: 
 
I try not to think 
About the pain I feel inside 
Did you know you used to be my hero? 
All the days you spent with me 
Now seem so far away 
And it feels like you don't care anymore 
 
Pre-Chorus: 
 
And now I try hard to make it  
I just want to make you proud  
I'm never gonna be good enough for you 
I can't stand another fight 
And nothing's alright 
 
Chorus: 
 
'Cuz we lost it all  
Nothing lasts forever 
I'm sorry  
I can't be perfect 
Now it's just too late and  
We can't go back 
I'm sorry  
I can't be perfect 
 
Bridge: 
 
Nothing's gonna change the things that you said 
Nothing's gonna make this right again 
Please don't turn your back 
I can't believe it's hard 
Just to talk to you 
But you don't understand 
 
Chorus: 
 
'Cuz we lost it all  
Nothing lasts forever 
I'm sorry  
I can't be perfect 
Now it's just too late and  
We can't go back 
I'm sorry  
I can't be perfect 
 
'Cuz we lost it all  
Nothing lasts forever 
I'm sorry  
I can't be perfect 
Now it's just too late and  
We can't go back 
I'm sorry  
I can't be perfect 
 
 
 
I'm about 95% sure that this is correct. 
 
 

	  

Solicitar el vídeo de "Perfect" - Descargar Perfect mp3

No existe una video leccione para esta canción

solicitar
140

Envie sus comentários.

1 comentários

AMANDAPAGEAMANDAPAGE
hace 443 años atrás
very nice song. ilove it
 
LosAcordes
Buscar
auto avanzar rasgueos aumentar disminuir cambiar color esconder acordes gráficos
losacordes exhibir acordes losacordes youTube video losacordes ocultar tabs losacordes cambiar notación losacordes ir hacia arriba losacordes