A B C D E F G H I J K L M N O P Q R S T U V X Y Z 0-9
Sepultura

Início > Sepultura > acordes

Sepultura

Desperate Cry

Dificultad:FácilFácil

tuner corregir añadir para songbook version para impresion version de texto version rtf e-mail
acordestablaturabaixobateríaarmónicaflautacavacopiano Guitar Pro
acordes

Desperate Cry

	  |---------------------------------------------------------------|   
|---------------------------------------------------------------|   
|-3----------3-----------3--------------------4-----------------|   
|----1----1-----1-----1----1-----1---------2--------------------|   
|-------1----------1----------1---------2-----------------------|   
|------------------------------------0--------------------------|   
                                               
w/Rhy. Fig 1
 (Distorted)
|---------------------------------------------------------------|   
|---------------------------------------------------------------|   
|-3---3---3----------3--3--3------------------------------------|   
|-1---1---1----------1--1--1------------------------------------|   
|-1---1---1----------1--1--1--------2---------------------------|   
|-----------------------------------0---------------------------|   
                                     
Play 4 times

P.M...............
|----------------|   
|----------------|   
|----------------|   
|----------------|   
|-2-2-2-2-2-2-2-2|   
|-0-0-0-0-0-0-0-0|   
                
    P.M..............     P.M.............   P.M...............
|---------------------------------------------------------------|   
|---------------------------------------------------------------|   
|3----------------------3-------------------3-------------------|   
|1----------------------1-------------------1-------------------|   
|1--2---2---2--2--2--2--1--2--2--2--2--2-2--1-2--2--2--2--2--2--|   
|---0---0---0--0--0--0-----0--0--0--0--0-0----0--0--0--0--0--0--|   
                                                              

|---------------------------------------------------------------|   
|---------------------------------------------------------------|   
|-3-----------------4-------------------------------------------|   
|----1-----1-----2-----2----------------------------------------|   
|-------1-----2-------------------------------------------------|   
|---------------------------------------------------------------|   
                                                               
Rhy. Fig 2
     P.M.....................   P.M...................
|------------------------------------------------------|   
|------------------------------------------------------|   
|--8---------------------------8-----------------------|   
|--6---------------------------6-----------------------|More - - 
|--6---------------------------6-----------------------|          |
|------0---0---0-0-0--0-0-0-0----0---0--0-0-0--0-0-0-0-|          |
     P.M.--------------------                                    /
|---------------------------------------------------------------|   
|---------------------------------------------------------------|   
|-8---------------------------8-8-8-8--9--9-9-9-----------------|   
|-6---------------------------6-6-6-6--7--7-7-7-----------------|   
|-6---------------------------6-6-6-6--7--7-7-7-----------------|   
|----0---0---0-0-0---0-0-0-0------------------------------------|   

                                                 
|---------------------------------------------------------------|   
|---------------------------------------------------------------|   
|----------------------------4/9--------------------------------|   
|-2---(2)----------3--2--------------------2--------------------|   
|-2---(2)----------1--2------2/7-----------2--------------------|   
|-0---(0)-------------0--------------------0-------------------|   

1st/2nd Verse w/ vocals "Sacrifice is pleasure/Death the 
coldest wiind"
         P.M.....
|---------------------------------------------------------------|   
|---------------------------------------------------------------|   
|---------------------------------------------------------------|   
|------------------4--3-----------------------------------------|   
|3--2-----4--5--2--2--1--3--2----2--2--2--2--2------------------|   
|1--0-----2--3--0--------1--0----0--0--0--0--0------------------|   
              

Chorus                 "Creation!"
|---------------------------------------------------------------|   
|---------------------------------------------------------------|   
|---------------------------------------------------------------|   
|3--3----3-3---3--3---------------------------------------------|   
|1--1----1-1---1--1-----2--2--2--2--2--2--2--2------------------|   
|1--1-0--1-1-0-1--1-0---0--0--0--0--0--0--0--0------------------|   
                                  
Rhy Fig 2
Main Verse riff
Chorus

Now time to shred =)
                                             P.M.........
|--------------------------------------------------------|   
|--------------------------------------------------------|   
|--------------------------------------------------------|   
|--------------------------------------------------------|   
|---------------4-------------3--------------------------|   
|-1-1-1-1-1-1-1---1-1-1-1-1-----1-1-1-1-1-1--2-2-2-2-2---|        
 
|---------------------------------------------------------------|   
|---------------------------------------------------------------|   
|---------------------------------------------------------------|   
|---------------------------------------------------------------|   
|-----------------4----------------3----------------------------|   
|-1-1-1-1-1-1-1-----1-1-1-1-1-1-1-----1-1-1-1-1-1-1--1--0--1--0-|   
                                              

Rhy Fig 3
 P.M..........  .......      .......     .   Play 4 times
|---------------------------------------------------------------|   
|---------------------------------------------------------------|   
|---------------------------------------------------------------|   
|---------------------------------------------------------------|   
|--------------2----------3-----------2------4------------------|   
|-1-1-1--2--1----1--2--1-----1--2--1-----1---2------------------|   
 
                   
      w/ "Endless empty maze, Despair distress and silence" etc  2x   
P.M..........................................
|---------------------------------------------------------------|   
|---------------------------------------------------------------|   
|---------------------------------------------------------------|   
|---------------------------------------------------------------|   
|----------------------------------------------4---3------------|   
|-1-1-1-1-1-1-1-1-1-1-1-1-1-1-1-1-1-1-1-1-1----2---1------------|   
 P.M..................................................
|---------------------------------------------------------------|   
|---------------------------------------------------------------|   
|---------------------------------------------------------------|   
|---------------------------------------------------------------|   
|---------------------------------------------------------------|   
|-1-1-1-1-1-1-1-1-1-1-1-1-0-0-0-0-0-0-0-0-0-0-0-0-0-------------|   

rhy fig 3 Four times
                                                            
                                            
        T                              T             T
|-14--(18)-----------------------13--(16)-------11-(14)----11---|   
|-//-----------------------------//-----------------//----------|   
|-//-----------------------------//-----------------//----------|   
|-//-----------------------------//-----------------//----------|   
|---------------------------------------------------------------|   
|---------------------------------------------------------------|   
                                                           
|-----------------------------16-----------19----------22--19---|   
|---------16----18----19------9---18-------12--21------15--12---|   
|13-15-15-8--15-10-15-11--15------10--16/19----13--19-----------|   
|-6/8--8-----8-----8------8-----------9------------12-----------|   
|---------------------------------------------------------------|   
|---------------------------------------------------------------|   
                                                             
|-----19--------------16----------------------------------------|   
|-----12--21----------9--18-------------------------------------|   
|-19------13--1916------10--15------15---(15)-----------------|   
|-12----------129-----------8---18--8----(8)------------------|   
|--------------------------------11-----------------------------|   
|---------------------------------------------------------------|   
                                               
Rhy fig 3 twice
                                              Play 4 times
|---------------------------------------------------------------|   
|---------------------------------------------------------------|   
|---------------------------------------------------------------|   
|--------------------------------------------4------------------|   
|-3-----3--3---3----3-3--3--4---4-4--4----4--2------------------|   
|-1-----1--1---1----1-1--1--2---2-2--2----2---------------------|   
                                                          
 
|---------------------------------------------------------------|   
|---------------------------------------------------------------|   
|---------------------------------------------------------------|   
|-2-------(2)-------------3-------2-------(2)-------------------|   
|-2-------(2)-------------1-------2-------(2)-------------------|   
|-0-------(0)---------------------0-------(0)-------------------|   
                                             

Clean tone let ring                                   Play 4 times
|---------------------------------------------------------------|   
|---------------------------------------------------------------|   
|-3---------3--------3--------3---------------------4-----------|   
|----1---------1--------1--------1---------------2--------------|   
|-------1---------1--------1--------1---------2-----------------|   
|-----------------------------------------0---------------------|   
                                                             

 P.M............................................
|-----------------------------------------------|   
|-----------------------------------------------|   
|-----------------------------------------------|   
|-----------------------------------------------|   
|-----------------------------------------------|   
|-0-0-0-0-0-0-0---0-0-0---0-0-0-0-0---0-0-0-0-0-| MORE 
                                                        |  These 2 toghether twice
  ..............................................
|-----------------------------------------------------|   
|-----------------------------------------------------|   
|-----------------------------------------------------|   
|-----------------------------------------------------|   
|------------------------------------------------3----|   
|-0-0-0-0-0-0-0-0---0-0-0---0-0-0-0-0---0-0-0-0--1----|   
                                                      
                                                
P.M.................
|----------------------|   
|----------------------|   
|----------------------|   
|----------------------|   
|-3-----5--6--5------3-|   
|-1--0--3--4--3---0--1-|     

W/ "Mute souls end in silence"
                       
P.M.............................   .......................................
|----------------------------------------------------------------------------|      
|----------------------------------------------------------------------------|      
|----------------------------------------------------------------------------|     
|----------------------------------------------------------------------------|      
|-2-2-2-2-2-2-2-2--2--2-2-2-2-2--3--2-2-2---2-2-2-2--2--3-----5--6--5------3-|     
|-0-0-0-0-0-0-0-0--0--0-0-0-0-0--1--0-0-0---0-0-0-0--0--1--0--3--4--5---0--1-|  

     P.M..................
|-------------------------|---------------------|   
|-------------------------|---------------------|   
|-8-----------------------|-----------0----/----|   
|-6-----------------------|--------------/------|   
|-6-----------------------|------------/-----0--|   
|----0--0--0-0-0--0-0-0-0-|---------------------|   
                                                      
      P.M.........................   ...........
|---------------------------------------------------------------|   
|---------------------------------------------------------------|   
|-8-------------------------------------------------------------|   
|-6-------------------------------------------------------------|   
|-6--------------------------------2--------------3---2--------|   
|----0--0--0-0-0--0-0-0-0----0--0--0----1---1-----1---0--------|   

|---------------------------------------------------------------|   
|---------------------------------------------------------------|   
|---------------------------------------------------------------|   
|---5----------(5)-----------------2----------------------------|   
|---3----------(3)-----------------2----------------------------|   
|---3----------(3)-----------------0----------------------------| 

  GTR I                                       
|---------------------------------------------------------------|   
|---------------------------------------------------------------|   
|---------------------------------------------------------------|   
|---------------------------------------------------------------|   
|-/3---------------(3)--------------/7-----------(7)------------|   
|---------------------------------------------------------------|  
|                                                               |
|                                                               |
|  GTR II                                                       |
|---------------------------------------------------------------|   
|---------------------------------------------------------------|   
|---------------------------------------------------------------|   
|---------------------------------------------------------------|   
|---------------------------------------------------------------|   
|-/8---------------(8)--------------0-----------(0)-------------|

                              2nd time              
|---------------------------|-----------------------------------|   
|---------------------------|-----------------------------------|   
|-5-------------------------|----4------------------------------|   
|-5-------------------------|----4------------------------------|   
|-3---------7--6--5------2--|----2------------------------------|   
|-----------5--4--3------0--|-----------------------------------| 
                                                   
                                  
|---------------------------------------------------------------|   
|---------------------------------------------------------------|   
|---7/9-------9/117--------7/9---9---9/12--12-----9------------|   
|---------------------------------------------------------------|   
|---5/7-------7/9-5--------5/7---7---7/10--10-----7------------|   
|---------------------------------------------------------------|
                                           
 
|---------------------------------------------------------------|   
|---------------------------------------------------------------|   
|---9-----9/117---7/95---5/74--4-----4---5----5--54---4-----|   
|---------------------------------------------------------------|   
|---7-----7/9-5---5/73---3/52--2-----2---3----3--32---2-----|   
|---------------------------------------------------------------|
                                                           
 
|---------------------------------------------------------------|   
|------------------------------------------7~~~~--8--3--3/5-----|   
|-9~~~~~~~~~---------------7~~~~~-7--7--9-----------------------|   
|----------------9---10-----------------------------------------|   
|-------------7-------------------------------------------------|   
|---------------------------------------------------------------| 
                                                           

|---------7----------------------7--------------7---------------|   
|--8--10-----10---8---7---8--10-----10---8--10-----10--8p7------|   
|----------------------------------------------------------9----|   
|---------------------------------------------------------------|   
|---------------------------------------------------------------|   
|---------------------------------------------------------------| 
                                                            
|---------------------------------------------------------------|   
|--7--7--8----10-/-8-----7h8-8p7/12~~~~~~~~~~~~~~~ 12-----------|   
|---------------------------------------------------------------|   
|---------------------------------------------------------------|   
|---------------------------------------------------------------|   
|---------------------------------------------------------------|   
   *VOLUME KNOB SWELLS                               
    <   >  <  >  <  >  <  >  <  >  <  > <  >  <  >  <  >  <

|---------------------------------------------------------------|   
|---------------------------------------------------------------|   
|--8------------------------------------------------------------|   
|---------------------------------------------------------------|   
|--6------------------------------------------------------------|   
|---------------------------------------------------------------|  
    <  >  <  >  <  >  <  >  <  >  <  >  <  >  <  >  <  >  <
 
|---------------------------------------------------------------|   
|---------------------------------------------------------------|   
|--7------------------------------------------------------------|   
|---------------------------------------------------------------|   
|--5------------------------------------------------------------|   
|---------------------------------------------------------------|  
                                                           
                                                *Bend Full
|---------------------------------------------------------------|   
|---9/11--------9----8--8---8-9---11---12/14--14^---------------|   
|--11/12--129--9----8--8---8-9---12---13/15--15^---------------|   
|---------------------------------------------------------------|   
|---------------------------------------------------------------|   
|---------------------------------------------------------------|         
                                                          H
|---------------------------------------------------11---9-11---|   
|-14~~~~---9-----------------9---8--8---9-/-12--11--12--11-12---|   
|-15~~~~ -11---9-/11---129--9---8--8---9-/-13--12--------------|   
|-------------11-/12--------------------------------------------|   
|---------------------------------------------------------------|   
|---------------------------------------------------------------| 
                                                           
|--9------------------------------------------------------------|   
|-11----11------------------------------------------------------|   
|-------12----12~~~~~~~~~~~~~~~~~~~~~~~`------------------------|   
|-------------13------------------------------------------------|   
|---------------------------------------------------------------|   
|---------------------------------------------------------------|   
                                        
 
CHORUS
 
          Feedback
|---------------------------------------------------------------|   
|---------------------------------------------------------------|   
|---------------------------------------------------------------|   
|--2------------------------------------------------------------|   
|--2------------------------------------------------------------|   
|--0------------------------------------------------------------|         
                  
 
|---------------------------------------------------------------|   
|---------------------------------------------------------------|   
|---------------------------------------------------------------|   
|---------------------------------------------------------------|   
|---------------------------------------------------------------|   
|0--0--0--0--0--0--0--0--0-0--0---0--0--0--0--0--0--0--0--0--0--|      
                                                               
                                                        w/ "Cry!!!!"
|---------------------------------------------------------------|   
|---------------------------------------------------------------|   
|---------------------------------------------------------------|   
|--8-----------------------------------------9---9----8---------|   
|--6-----------------------------------------7---7----8---------|   
|--6---0---0--0--0--0--0---0---0---0---0---0-7---7----6---------| 
	  

Solicitar el vídeo de "Desperate Cry" - Descargar Desperate Cry mp3

No existe una video leccione para esta canción

solicitar
140

Envie sus comentários.

0 comentários

 
LosAcordes
Buscar
auto avanzar rasgueos aumentar disminuir cambiar color esconder acordes gráficos
losacordes exhibir acordes losacordes youTube video losacordes ocultar tabs losacordes cambiar notación losacordes ir hacia arriba losacordes