A B C D E F G H I J K L M N O P Q R S T U V X Y Z 0-9
Scorpions

Início > Scorpions > acordes

Scorpions

Still Loving You

Dificultad:ExpertoExperto

tuner corregir añadir para songbook version para impresion version de texto version rtf e-mail
acordestablaturabajobateriaarmónicaflautacavacopiano Guitar Pro
acordes

Still Loving You

Áño: 1984 - Álbum: Bad For Good: The Very Best of Scorpions

(R. Schenker / K. Meine)

	  


 INTRODUÇÃO 1, 2 e 3   (GUITARRA 1) 



 e|---6-------6-------6-----9-8-6-----6-----------5-------------| 
 B|-----8-------8-------8---------8-----8-----------7-----------| 
 G|-------7-------7-------7---------------7-----------5---------| 
 D|-0-------------------------------8-------8--7--------7-------| 
 A|---------8-------6---------------6----------5----------------| 
 E|-------------------------------------------------------------| 




 e|---6-------6-------6-----9-8h9p8-6-------6--------------8----| 
 B|-----8-------8-------8---------------8-----8--------7--------| 
 G|-------7-------7-------7---------------------7--------5------| 
 D|-0-------------------------------------8-------8--7----------| 
 A|---------8-------6---------------------6----------5----------| 
 E|-------------------------------------------------------------| 



 INTRODUÇÃO 1   (GUITARRA 2) 


 e|---3--------3-------3---------------------3--------------2---| 
 B|-----3--------3-------3---------------------3--------1-------| 
 G|-------3--------3-------3--6-5h6p5--3---------3--------2-----| 
 D|----------3---------------------------5------------0---------| 
 A|-5-----------------6--------------------6-------6------------| 
 E|-------------------------------------------------------------| 




 VERSO 1 ,2 e 3  (GUITARRA 1) 




 e|--6-----6-----6---6-----6-----6---6-----6-----6---6----6----6| 
 B|----8-----8---------8-----8---------8-----8---------8----8---| 
 G|------7-----7---------7-----7---------7-----7---------7----7-| 
 D|0---------------0---------------0---------------0------------| 
 A|-------------------------------------------------------------| 
 E|-------------------------------------------------------------| 




 e|---9------9-----9----9-----9-------2-----2-----2---2----2---2| 
 B|----10-----10---------10----10-------3-----3--------3----3---| 
 G|-9-----9------9---------9------9-------2-----2--------2---2--| 
 D|------------------11-------------0---------------0-----------| 
 A|-------------------------------------------------------------| 
 E|-------------------------------------------------------------| 




 e|--6-----6-----6---6-----6-----6---6-----6-----6---6----6----6| 
 B|----8-----8---------8-----8---------8-----8---------8----8---| 
 G|------7-----7---------7-----7---------7-----7---------7----7-| 
 D|0---------------0---------------0---------------0------------| 
 A|-------------------------------------------------------------| 
 E|-------------------------------------------------------------| 





 e|---9------9-----9----9-----9-------2-----2---2H3--2----------| 
 B|----10-----10---------10----10-------3-----3-----------------| 
 G|-9-----9------9---------9------9-------2---------------------| 
 D|------------------11-------------0---------------------------| 
 A|-------------------------------------------------------------| 
 E|-------------------------------------------------------------| 





VERSO 1 ,2 e 3  (GUITARRA 2) 




 e|-------------3-------------3------------3-------------3------|                                                                  
 B|---------3-------------3------------3-------------3----------|                                                             
 G|-----3-----3-------3-----3------3-----3-------3-----3--------|                                            
 D|---5---5---------5---5--------5---5---------5---5------------|                                                                 
 A|-5-------------5------------5-------------5------------------|                                                                 
 E|-------------------------------------------------------------|                                                                





 e|-------------0-------------0--------------2---------------2--| 
 B|--------2--------------2----------3---3-----------3---3------| 
 G|-----2----2---------2----2------2---2---2-------2---2---2----| 
 D|---2--2-----------2--2--------0--------------0---------------| 
 A|-0--------------0--------------------------------------------| 
 E|-------------------------------------------------------------| 
  

 e|-------------3-------------3------------3-------------3------|                                                                  
 B|---------3-------------3------------3-------------3----------|                                                             
 G|-----3-----3-------3-----3------3-----3-------3-----3--------|                                            
 D|---5---5---------5---5--------5---5---------5---5------------|                                                                 
 A|-5-------------5------------5-------------5------------------|                                                                 
 E|-------------------------------------------------------------|                                                                




 e|-------------0--------------0--------------------------------| 
 B|---------2--------------2----------3---3---------------------| 
 G|------2----2--------2-----2------2---2---2-------------------| 
 D|----2--2----------2---2--------0-----------0-----------------| 
 A|--0------------0---------------------------------------------| 
 E|-------------------------------------------------------------| 



 INTRODUÇÃO 2 e 3   (GUITARRA 2) 


 e|---3--------3-------3---------------------3--------------2---| 
 B|-----3--------3-------3---------------------3--------1-----1-| 
 G|-------3--------3-------3--6--5--3------------3--------2-----| 
 D|----------3-------------------------5--------------0---------| 
 A|-5-----------------6--------------------6-------6------------| 
 E|-------------------------------------------------------------| 




 e|---3--------3-------3---------------------3--------------2---| 
 B|-----3--------3-------3---------------------3--------1-------| 
 G|-------3--------3-------3--6-5h6p5--3---------3--------2-----| 
 D|----------3---------------------------5------------0---------| 
 A|-5-----------------6--------------------6-------6------------| 
 E|-------------------------------------------------------------| 

  

 INTRODUÇÃO 2 e 3   (GUITARRA 3) 



 e|-------------------------------------------------------------| 
 B|-------------------------------------------------------------| 
 G|---------2-3-5--3p2--3--2---2p3--2-----2--3--5--3--5b7-------| 
 D|---3/5--------------------5---------5------------------------| 
 A|-------------------------------------------------------------| 
 E|-------------------------------------------------------------| 




 e|-------------------------------13--13b15---------------------| 
 B|----10-11-13--11p10-11------11-----------13b14r13p11----13b15| 
 G|/12---------------------/12--------------------------12------| 
 D|-------------------------------------------------------------| 
 A|-------------------------------------------------------------| 
 E|-------------------------------------------------------------| 

  


 refrão 1 (GUITARRA 1) 


  
 e|-------------------------------------------------------------| 
 B|-------------------------------------------------------------| 
 G|-------------------------------5-----------------------------| 
 D|-------8---3-----------8---3---3------5---7------8---10------| 
 A|---5---6---1---3---5---6---1------5---3---5--5---6---8-------| 
 E|---3-----------1---3--------------3----------3---------------| 


 refrão 1 cliche  (GUITARRA 2) 



 e|-------------------------------------------------------------| 
 B|-------------------------------------------------------------| 
 G|-------------------------------------------------------------| 
 D|--8-----------------------10---------10----------------------| 
 A|--6\5--6p5--6p5--6p5--6----8\7--8p7--8-----------------------| 
 E|-------------------------------------------------------------| 



 VERSO 3  (GUITARRA 1)  clichE 



 e|-------9/10----9/10-------------------------------------------| 
 B|------10/11---10/11-------------------------------------------| 
 G|--------------------------------------------------------------| 
 D|---0----------------------------------------------------------| 
 A|--------------------------------------------------------------| 
 E|--------------------------------------------------------------| 


 verso 3  cliches da (GUITARRA 3) 




 e|--------------|-------------|--------------|-----------------| 
 B|--------------|-5b6---------|--------------|-5b6-5b6---------| 
 G|---------3b---|-5b6r5p3-----|---------3p---|-5b6-5b6r5p3-----| 
 D|-----3p5----5-|---------5-3-|-----3p5----5-|------------5-3--| 
 A|-3p5----------|-------------|-3p5----------|-----------------| 
 E|--------------|-------------|--------------|-----------------| 


  refrão 2 - 1ª parte   (GUITARRA 1) 



 e|-------------------------------------------------------------| 
 B|-------------------------------------------------------------| 
 G|-------------------------------5-----------------------------| 
 D|-------8---3-----------8---3---3------5---7---------8---10---| 
 A|---5---6---1---3---5---6---1------5---3---5--5--3---6---8----| 
 E|---3-----------1---3--------------3----------3--1------------| 



 e|-------------------------------------------------------------| 
 B|-------------------------------------------------------------| 
 G|----------------------3--------------------------------------| 
 D|----8--3--------8--3--1--------5--7-5-7-----8--10------------| 
 A|-5--6--1--3--5--6--1----5-3-5--3--5-3-5--5--6--8-------------| 
 E|-3--------1--3----------3-1-3------------3-------------------| 



 refrão 2 - 2ª parte   (GUITARRA 1) 



 e|-------------------------------------------------------------| 
 B|-------------------------------------------------------------| 
 G|-------------------------------5-----------------------------| 
 D|-------8---3-----------8---3---3-----------------------------| 
 A|---5---6---1---3---5---6---1---------------------------------| 
 E|---3-----------1---3-----------------------------------------| 




 refrão 2 cliches da   (GUITARRA 2) 

  

 e|-------------------|----------------|-20b22r20-18-20b22r20b22| 
 B|-------------------|-13b15r13p12p10-|------------------------| 
 G|---------------3---|----------------|------------------------| 
 D|-------------3---5-|----------------|------------------------| 
 A|-------1-3/5-------|----------------|------------------------| 
 E|-1-1-3-------------|----------------|------------------------| 




 e|-----------------------------|-------------------------------| 
 B|-----------------------------|-------------------------------| 
 G|---------------3-5-5b7r5-3-5-|-------------------------------| 
 D|-----------3-5---------------|-------------------------------| 
 A|-----1-3/5-------------------|-------------------------------| 
 E|-1-3-------------------------|-------------------------------| 




 solo  (guitarra 2) 


 e|-13b15--13b15r13--10--------13-------------------17--18--20--|    
 B|----------------------13b15----13b15r13\----20---------------| 
 G|-------------------------------------------------------------| 
 D|-------------------------------------------------------------| 
 A|-------------------------------------------------------------| 
 E|-------------------------------------------------------------| 



 e|--20b22--20b22r20--18--20\---15------------------------------| 
 B|-----------------------------18b20-----------16b18--16-------| 
 G|---------------------------------------14-15-----------------| 
 D|------------------------------------17-----------------------| 
 A|-------------------------------------------------------------| 
 E|-------------------------------------------------------------| 



 e|-----------------------20b22r20--18--20b22r20--18--20b22-----| 
 B|-18b20--18--18b20--18----------------------------------------| 
 G|-------------------------------------------------------------| 
 D|-------------------------------------------------------------| 
 A|-------------------------------------------------------------| 
 E|-------------------------------------------------------------| 




 e|-----15h17h18p17p15------------15h17h18p17h18p17-------------| 
 B|--15----------------17b20--15-------------------18--15-------| 
 G|-------------------------------------------------------------| 
 D|-------------------------------------------------------------| 
 A|-------------------------------------------------------------| 
 E|-------------------------------------------------------------| 




 e|-------------------------------------------------------------| 
 B|-18-18--15h18p15----15h18p15----15h18p15----15h18p15---------| 
 G|-----------------17----------17----------17----------17------| 
 D|-------------------------------------------------------------| 
 A|-------------------------------------------------------------| 
 E|-------------------------------------------------------------| 



 e|-------------------------------------------------------------| 
 B|-18-18-18-18---15h18p15----15h18p15----15h18p15----18b20-----| 
 G|------------------------17----------17----------17-----------| 
 D|-------------------------------------------------------------| 
 A|-------------------------------------------------------------| 
 E|-------------------------------------------------------------| 



 e|-------------------------------------------------------------| 
 B|--------------15-16-18-15h16p15---------15-16-15-------------| 
 G|--17b19(HA)-----------------------17---------------17b19-----| 
 D|-------------------------------------------------------------| 
 A|-------------------------------------------------------------| 
 E|-------------------------------------------------------------| 



 e|-------------------------------------------------------------| 
 B|--------------------------------------------------20---------| 
 G|-15h17p15------15h17p15------15h17p15------17b19-------17b19-| 
 D|-----------17------------17------------17--------------------| 
 A|-------------------------------------------------------------| 
 E|-------------------------------------------------------------| 



 e|-------------------------------------------------------------| 
 B|-------------------------------------------------------------| 
 G|---3-5-3-5-3-5-3-5-3-5-3-5-3-5-3-----------------------------| 
 D|---------------------------------5-3-------------------------| 
 A|-------------------------------------5-3---3-5---------------| 
 E|-----------------------------------------6-------------------| 



 e|------------------------15-----------------------------------| 
 B|------------------------18b20-------15-16b18-16--18b20--18---| 
 G|-----3-5----------------------16-17--------------------------| 
 D|-3-5-----5-3-------------------------------------------------| 
 A|-------------5-3---------------------------------------------| 
 E|-----------------3(HA)---------------------------------------| 




 e|-----------------------------------10h12p11-10h12p11-10h12p11| 
 B|18b20-18-13-11-----------------------------------------------| 
 G|---------------14-12-11-12-12/14-12--------------------------| 
 D|-------------------------------------------------------------| 
 A|-------------------------------------------------------------| 
 E|-------------------------------------------------------------| 




 e|10h12p11-10h11p10h11p10h11p10h11p10h11p10h11p10h11p10h11p10h11| 
 B|--------------------------------------------------------------| 
 G|--------------------------------------------------------------| 
 D|--------------------------------------------------------------| 
 A|--------------------------------------------------------------| 
 E|--------------------------------------------------------------| 





 e|--15---------------------------------------------------------| 
 B|--18b20---ETC------------------------------------------------| 
 G|-------------------------------------------------------------| 
 D|-------------------------------------------------------------| 
 A|-------------------------------------------------------------| 
 E|-------------------------------------------------------------| 



	  

Solicitar el vídeo de "Still Loving You" - Descargar Still Loving You mp3

still-loving-you-by-scorpions Tocar

Existe una video leccione para esta canción

vea ahora

140

Envie sus comentários.

1 comentários

SidSouzaSidSouza
hace 1425 años atrás
Esta cifra cabe uma correção. Eu estava ouvindo a musica e queria somente os acordes fica melhor assim: G#m A D7 refrão G#m Eb Bb F
 
LosAcordes
Buscar
auto avanzar rasgueos aumentar disminuir cambiar color esconder acordes gráficos
losacordes exhibir acordes losacordes youTube video losacordes ocultar tabs losacordes cambiar notación losacordes ir hacia arriba losacordes