A B C D E F G H I J K L M N O P Q R S T U V X Y Z 0-9
Savatage

Início > Savatage > acordes

Savatage

Gutter Ballet

Dificultad:Ningún gradoNingún grado

por xxDiogo Brunoxx

tuner corregir añadir para songbook version para impresion version de texto version rtf e-mail
acordestablaturabajobateríaarmónicaflautacavacopiano Guitar Pro
acordes

Gutter Ballet

	                                  Gutter Ballet                                    
 
 
                                                                        SAVATAGE 
Guitar 1 - Criss Oliva 
Transcribed by Thomas P. Herold   ( charon@chello.at ) 
 
 
Intrução(Piano)                                                                                
E||------------------|------------------|------------------|------------------| 
B||------------------|------------------|------------------|------------------| 
G||------------------|------------------|------------------|------------------| 
D||------------------|------------------|------------------|------------------| 
A||------------------|------------------|------------------|------------------| 
E||------------------|------------------|------------------|------------------| 
 
 
                                                                             
------------------|------------------|------------------|------------------| 
------------------|------------------|------------------|------------------| 
------------------|------------------|------------------|------------------| 
------------------|------------------|------------------|------------------| 
------------------|------------------|------------------|------------------| 
------------------|------------------|------------------|------------------| 
 
 
                                                                               
--------------------|------------------|------------------|------------------| 
--3--------1--------|------------------|------------------|------------------| 
--3--------2--------|------------------|------------------|------------------| 
--3--------3--------|------------------|------------------|------------------| 
--1--------3--------|------------------|------------------|------------------| 
-----------3--------|------------------|------------------|------------------| 
 
 
                                                                               
--------------------|------------------|------------------|------------------| 
--5--------3--------|------------------|------------------|------------------| 
--5--------4--------|------------------|------------------|------------------| 
--5--------5--------|------------------|------------------|------------------| 
--3--------5--------|------------------|------------------|------------------| 
-----------5--------|------------------|------------------|------------------| 
 
 
                                                                               
--------------------|------------------|------------------|------------------| 
--3--------1--------|------------------|------------------|------------------| 
--3--------2--------|------------------|------------------|------------------| 
--3--------3--------|------------------|------------------|------------------| 
--1--------3--------|------------------|------------------|------------------| 
-----------3--------|------------------|------------------|------------------| 
 
 
                                                                               
--------------------|------------------|------------------|------------------| 
--5--------3--------|------------------|------------------|------------------| 
--5--------4--------|------------------|------------------|------------------| 
--5--------5--------|------------------|------------------|------------------| 
--3--------5--------|------------------|------------------|------------------| 
-----------5--------|------------------|------------------|------------------| 
 
 
                                                                        
----------|-------------------|-------------------|-------------------| 
----------|-------------------|-------------------|-------------------| 
----------|--7----------------|--7----------------|--7----------------| 
----------|--7----------------|--7----------------|--7----------------| 
----------|--5----------------|--5----------------|--5----------------| 
----------|--0----------------|--0----------------|--0----------------| 
 
 
                                                                      
-------------------|------------------|-----------------------------| 
-------------------|------------------|-----------------------------| 
--7----------------|------------------|--7------5------7----5-----7-| 
--7----------------|------------------|--7------5------7----5-----7-| 
--5----------------|------------------|--5------3------5----3-----5-| 
--0----------------|------------------|-----0-0----0-0----0-----0---| 
 
 
                                                                 
--------------------------------|---------------------------10-| 
--------------------------------|------------------------------| 
--------7------10----10/-12-12/-|--7------5------7----5--------| 
--------7------10----10/-12-12/-|--7------5------7----5--------| 
--------5------8-----8/--10-10/-|--5------3------5----3--------| 
----0-0----0-0-----0------------|-----0-0----0-0----0-----0----| 
 
 
                                                                 
--------------------------------|---------------------------10-| 
--------------------------------|------------------------------| 
--------7------10----10/-12-12/-|--7------5------7----5--------| 
--------7------10----10/-12-12/-|--7------5------7----5--------| 
--------5------8-----8/--10-10/-|--5------3------5----3--------| 
----0-0----0-0-----0------------|-----0-0----0-0----0-----0----| 
 
 
                                                                 
--------------------------------|---------------------------10-| 
--------------------------------|------------------------------| 
--------7------10----10/-12-12/-|--7------5------7----5--------| 
--------7------10----10/-12-12/-|--7------5------7----5--------| 
--------5------8-----8/--10-10/-|--5------3------5----3--------| 
----0-0----0-0-----0------------|-----0-0----0-0----0-----0----| 
 
 
                                                                            
--------------------------------|--------------------|--------------------| 
--------------------------------|--------------------|--------------------| 
--------7------10----10/-12-12/-|--12----------------|--------------------| 
--------7------10----10/-12-12/-|--12----------------|--------------------| 
--------5------8-----8/--10-10/-|--10----------------|----------------0-3-| 
----0-0----0-0-----0------------|--------------------|--------------------| 
 
 
                                                                    
---------------------|----------------------|---------------------| 
---------------------|----------------------|---------------------| 
--2------------------|--2-------------------|--2------------------| 
--0------------------|--0--------7----------|--0------------------| 
-----------------0-3-|-----------5------0-3-|-----------------3-5-| 
---------------------|-----------0----------|---------------------| 
 
 
                                                                       
------------------------|---------------------|----------------------| 
------------------------|---------------------|----------------------| 
--5----------3----------|--2------------------|--2-------------------| 
--5----------3----------|--0------------------|--0--------7----------| 
--3------3-5-1------0-3-|-----------------0-3-|-----------5------0-3-| 
------------------------|---------------------|-----------0----------| 
 
 
                                                                  
---------------------|--------------------------|---------------| 
---------------------|--------------------------|--5--5--5------| 
--2------------------|--5----------3--3--3------|--5--5--5--5/7-| 
--0------------------|--5----------3--3--3------|--5--5--5--5/7-| 
-----------------3-5-|--3------0-5-1--1--1--1h3-|--0--0--0------| 
---------------------|--------------------------|---------------| 
 
 
                                                          
-----------------------------|--------------------------| 
-----------------------------|--------------------------| 
--7------5------7------5--3--|------------2-------------| 
--7------5------7------5--3--|------------2--7--5-3-----| 
--5------3------5------3--1--|------1--0--0---------5-3-| 
-----0-0----0-0----0-0-------|--------------------------| 
 
 
                                                                          
-----------------------------|-----------------------|------------------| 
-----------------------------|---------------13r-----|------------------| 
--7------5------7------5--3--|------3--2--2----------|------------------| 
--7------5------7------5--3--|------3--2--2----------|------------------| 
--5------3------5------3--1--|------1--0--0----------|------------------| 
-----0-0----0-0----0-0-------|-----------------------|------------------| 
 
 
                                                                      
-----------------------|-------------------------|------------------| 
-----------------------|-----------------6----8--|------------------| 
------3--3/5-5----5----|--7--------------5----7--|------------------| 
------3--3/5-5----5----|--7--------------3----5--|------------------| 
------1------0----0----|--5--5--5--5--5--3----5--|------------------| 
-----------------------|-----0--0--0--0--3----5--|------------------| 
 
 
                                                                             
------------------|----------------------||-------------------5------------| 
------------------|----------------------||-----5-6-5-6-8-6-5---8-6-5-6----| 
------------------|----------------------||*--7----------------------------| 
------------------|------------12/-------||*-------------------------------| 
------------------|------------12/-------||--------------------------------| 
------------------|------------12/-15/---||--------------------------------| 
 
 
                                                                 
------------------5------------|------------------5------------| 
----5-6-5-6-8-6-5---8-6-5-6----|----5-6-5-6-8-6-5---8-6-5-6----| 
--7----------------------------|--7----------------------------| 
-------------------------------|-------------------------------| 
-------------------------------|-------------------------------| 
-------------------------------|-------------------------------| 
 
 
                                                                             
--6-5---5---6-5---5---5--5---||---------------------|----------------------| 
------8---------8------------||---------------------|----------------------| 
----------------------------*||--2------------------|--2-------------------| 
----------------------------*||--0------------------|--0--------7----------| 
-----------------------------||-----------------0-3-|-----------5------0-3-| 
-----------------------------||---------------------|-----------0----------| 
 
 
                                                                      
---------------------|------------------------|---------------------| 
---------------------|------------------------|---------------------| 
--2------------------|--5----------3----------|--2------------------| 
--0------------------|--5----------3----------|--0------------------| 
-----------------3-5-|--3------3-5-1------0-3-|-----------------0-3-| 
---------------------|------------------------|---------------------| 
 
 
                                                                         
----------------------|---------------------|--------------------------| 
----------------------|---------------------|--------------------------| 
--2-------------------|--2------------------|--5----------3--3--3------| 
--0--------7----------|--0------------------|--5----------3--3--3------| 
-----------5------0-3-|-----------------3-5-|--3------0-5-1--1--1--1h3-| 
-----------0----------|---------------------|--------------------------| 
 
 
                                                                          
---------------|-----------------------------|--------------------------| 
--5--5--5------|-----------------------------|--------------------------| 
--5--5--5--5/7-|--7------5------7------5--3--|------------2-------------| 
--5--5--5--5/7-|--7------5------7------5--3--|------------2--7--5-3-----| 
--0--0--0------|--5------3------5------3--1--|------1--0--0---------5-3-| 
---------------|-----0-0----0-0----0-0-------|--------------------------| 
 
 
                                                                          
-----------------------------|---------------20r-----|------------------| 
-----------------------------|-----------------------|------------------| 
--7------5------7------5--3--|------3--2--2----------|------------------| 
--7------5------7------5--3--|------3--2--2----------|------------------| 
--5------3------5------3--1--|------1--0--0----------|------------------| 
-----0-0----0-0----0-0-------|-----------------------|------------------| 
 
 
                                                                      
-----------------------|-------------------------|------------------| 
-----------------------|-----------------6----8--|------------------| 
------3--3/5-5----5----|--7--------------5----7--|------------------| 
------3--3/5-5----5----|--7--------------3----5--|------------------| 
------1------0----0----|--5--5--5--5--5--3----5--|------------------| 
-----------------------|-----0--0--0--0--3----5--|------------------| 
 
 
                                                                             
------------------|----------------------||-------------------5------------| 
------------------|----------------------||-----5-6-5-6-8-6-5---8-6-5-6----| 
------------------|----------------------||*--7----------------------------| 
------------------|------------12/-------||*-------------------------------| 
------------------|------------12/-------||--------------------------------| 
------------------|------------12/-15/---||--------------------------------| 
 
 
                                                                 
------------------5------------|------------------5------------| 
----5-6-5-6-8-6-5---8-6-5-6----|----5-6-5-6-8-6-5---8-6-5-6----| 
--7----------------------------|--7----------------------------| 
-------------------------------|-------------------------------| 
-------------------------------|-------------------------------| 
-------------------------------|-------------------------------| 
 
 
                                                             
--6-5---5---6-5---5---5--5---||--6-5---5---6-5---5---------| 
------8---------8------------||------8---------8-----15----| 
----------------------------*||----------------------------| 
----------------------------*||----------------------------| 
-----------------------------||----------------------------| 
-----------------------------||----------------------------| 
 
 
                                                         
------------------------|------------------------------| 
------13----------10h11p|--10--------------------------| 
------------------------|----------12-10/9------9h10p9-| 
------------------------|------------------------------| 
------------------------|------------------------------| 
------------------------|------------------------------| 
 
 
                                                                         
--------------------------------10h12h13p12p10-12p10-------------10h12h| 
--------10h13p10h12h13p10h12h13----------------------13p10h12h13-------| 
-----------------------------------------------------------------------| 
--12-------------------------------------------------------------------| 
-----------------------------------------------------------------------| 
-----------------------------------------------------------------------| 
 
 
                                                                
--13p12p10-------------10h13p12p10-12p10----10h12h13-13b------| 
-----------13p10h12h13-------------------13-------------------| 
--------------------------------------------------------------| 
--------------------------------------------------------------| 
--------------------------------------------------------------| 
--------------------------------------------------------------| 
 
 
                                            
--13b---13b-13b13b13b-13b-13b-13b-13b-13b-| 
------------------------------------------| 
------------------------------------------| 
------------------------------------------| 
------------------------------------------| 
------------------------------------------| 
 
 
                                                
--13b-13b-13b-13b-13b-13b-13--13--13--13--12r-| 
----------------------------------------------| 
----------------------------------------------| 
----------------------------------------------| 
----------------------------------------------| 
----------------------------------------------| 
 
 
                                                                               
---12r--12-13p12p10h12p10/8-10p8/9-7p5-----------------|---------------------| 
---------------------------------------8p6-6p5h6p5-----|------3-----3---3----| 
---------------------------------------------------7/5-|------------0---0----| 
-------------------------------------------------------|---------------------| 
-------------------------------------------------------|---------------------| 
-------------------------------------------------------|---------------------| 
 
 
                                             
------------------|---------------------17-| 
------------------|------------------18----| 
------------------|---------------19-------| 
------------------|------------------------| 
------------------|------------------------| 
------------------|------------------------| 
 
 
                                                                            
--22----------17-22--22b-22b-22b-22b-|------22-20-22-----22/--------12-13-| 
-----------18------------------------|---------------------------12-------| 
--------19---------------------------|------------------------12----------| 
-------------------------------------|----------------------x-------------| 
-------------------------------------|----------------------x-------------| 
-------------------------------------|------------------------------------| 
 
 
                                                                                 
--15p13p12h13p12-------12------------------------------------------------------- 
-----------------15p12----15p13p12h13p12----12---------------------------------- 
-----------------------------------------14----12-10h12p10/9h10-12p10p9h10p9---- 
-----------------------------------------------------------------------------12- 
-------------------------------------------------------------------------------- 
-------------------------------------------------------------------------------- 
 
 
                                                                    
-------------------------------------------------------10---------| 
----------------------------------13p10-------13p10-------10-13b--| 
--------------------9h10h12p10h12-------12b10-------12------------| 
----9h10h12-9h10h12-----------------------------------------------| 
------------------------------------------------------------------| 
------------------------------------------------------------------| 
 
 
                                                                             
----------------------|------------------|------------------|--------------| 
--13b---13/-----------|------------------|------------------|--------------| 
----------------------|------------------|------------------|--------------| 
----------------------|------------------|------------------|--------------| 
----------------------|------------------|------------------|--------------| 
----------------------|------------------|------------------|--------------| 
 
 
                                                               
------------------------|--15--15b-15b-15b15b15b15b15b15b----| 
--13b---13r---------13--|------------------------------------| 
------------------------|------------------------------------| 
------------------------|------------------------------------| 
------------------------|------------------------------------| 
------------------------|------------------------------------| 
 
 
                                                                     
----------------------|----------------------|---------------------| 
--15----15/-----------|----------------------|---------------------| 
----------------------|--2-------------------|--2------------------| 
----------------------|--0--------7----------|--0------------------| 
----------------------|-----------5------0-3-|-----------------3-5-| 
----------------------|-----------0----------|---------------------| 
 
 
                                                                       
------------------------|---------------------|----------------------| 
------------------------|---------------------|----------------------| 
--5----------3----------|--2------------------|--2-------------------| 
--5----------3----------|--0------------------|--0--------7----------| 
--3------3-5-1------0-3-|-----------------0-3-|-----------5------0-3-| 
------------------------|---------------------|-----------0----------| 
 
 
                                                                  
---------------------|--------------------------|---------------| 
---------------------|--------------------------|--5--5--5------| 
--2------------------|--5----------3--3--3------|--5--5--5--5/7-| 
--0------------------|--5----------3--3--3------|--5--5--5--5/7-| 
-----------------3-5-|--3------0-5-1--1--1--1h3-|--0--0--0------| 
---------------------|--------------------------|---------------| 
 
 
                                                          
-----------------------------|--------------------------| 
-----------------------------|--------------------------| 
--7------5------7------5--3--|------------2-------------| 
--7------5------7------5--3--|------------2--7--5-3-----| 
--5------3------5------3--1--|------1--0--0---------5-3-| 
-----0-0----0-0----0-0-------|--------------------------| 
 
 
                                                                          
-----------------------------|---------------20r-----|------------------| 
-----------------------------|-----------------------|------------------| 
--7------5------7------5--3--|------3--2--2----------|------------------| 
--7------5------7------5--3--|------3--2--2----------|------------------| 
--5------3------5------3--1--|------1--0--0----------|------------------| 
-----0-0----0-0----0-0-------|-----------------------|------------------| 
 
 
                                                                      
-----------------------|-------------------------|------------------| 
-----------------------|-----------------6----8--|------------------| 
------3--3/5-5----5----|--7--------------5----7--|------------------| 
------3--3/5-5----5----|--7--------------3----5--|------------------| 
------1------0----0----|--5--5--5--5--5--3----5--|------------------| 
-----------------------|-----0--0--0--0--3----5--|------------------| 
 
 
                                                                           
------------------|----------------------|------------------5------------| 
------------------|----------------------|----5-6-5-6-8-6-5---8-6-5-6----| 
------------------|----------------------|--7----------------------------| 
------------------|------------12/-------|-------------------------------| 
------------------|------------12/-------|-------------------------------| 
------------------|------------12/-15/---|-------------------------------| 
 
 
                                                                 
------------------5------------|------------------5------------| 
----5-6-5-6-8-6-5---8-6-5-6----|----5-6-5-6-8-6-5---8-6-5-6----| 
--7----------------------------|--7----------------------------| 
-------------------------------|-------------------------------| 
-------------------------------|-------------------------------| 
-------------------------------|-------------------------------| 
 
 
                                                         
-----------------------|------------------5------------| 
--10--------8---6---5--|----5-6-5-6-8-6-5---8-6-5-6----| 
--9---------7---5---4--|--7----------------------------| 
--7---------5---3---2--|-------------------------------| 
--7---------5---3---2--|-------------------------------| 
--7---------5---3---2--|-------------------------------| 
 
 
                                                                 
------------------5------------|------------------5------------| 
----5-6-5-6-8-6-5---8-6-5-6----|----5-6-5-6-8-6-5---8-6-5-6----| 
--7----------------------------|--7----------------------------| 
-------------------------------|-------------------------------| 
-------------------------------|-------------------------------| 
-------------------------------|-------------------------------| 
 
 
                                                         
-----------------------|------------------5------------| 
--10--------8---6---5--|----5-6-5-6-8-6-5---8-6-5-6----| 
--9---------7---5---4--|--7----------------------------| 
--7---------5---3---2--|-------------------------------| 
--7---------5---3---2--|-------------------------------| 
--7---------5---3---2--|-------------------------------| 
 
 
                                                                 
------------------5------------|------------------5------------| 
----5-6-5-6-8-6-5---8-6-5-6----|----5-6-5-6-8-6-5---8-6-5-6----| 
--7----------------------------|--7----------------------------| 
-------------------------------|-------------------------------| 
-------------------------------|-------------------------------| 
-------------------------------|-------------------------------| 
 
 
                                                         
-----------------------|------------------5------------| 
--10--------8---6---5--|----5-6-5-6-8-6-5---8-6-5-6----| 
--9---------7---5---4--|--7----------------------------| 
--7---------5---3---2--|-------------------------------| 
--7---------5---3---2--|-------------------------------| 
--7---------5---3---2--|-------------------------------| 
 
 
                                                                 
------------------5------------|------------------5------------| 
----5-6-5-6-8-6-5---8-6-5-6----|----5-6-5-6-8-6-5---8-6-5-6----| 
--7----------------------------|--7----------------------------| 
-------------------------------|-------------------------------| 
-------------------------------|-------------------------------| 
-------------------------------|-------------------------------| 
 
 
                                                           
--6-5---5---6-5---5---5--5--|--6-5---5---6-5---5---5--5--| 
------8---------8-----------|------8---------8-----------| 
----------------------------|----------------------------| 
----------------------------|----------------------------| 
----------------------------|----------------------------| 
----------------------------|----------------------------| 
 
 
                                                   
--6-5---5---6-5---5---5--5--|-------------------|| 
------8---------8-----------|--3----------------|| 
----------------------------|--2----------------|| 
----------------------------|--0----------------|| 
----------------------------|--0----------------|| 
----------------------------|--0----------------|| 
 
 
 

	  

Solicitar el vídeo de "Gutter Ballet" - Descargar Gutter Ballet mp3

No existe una video leccione para esta canción

solicitar
140

Envie sus comentários.

0 comentários

 
LosAcordes
Buscar
auto avanzar rasgueos aumentar disminuir cambiar color esconder acordes gráficos
losacordes exhibir acordes losacordes youTube video losacordes ocultar tabs losacordes cambiar notación losacordes ir hacia arriba losacordes