Rise Against

Início > Rise Again... > acordes

Swing Life Away Tablatura

Rise Against

Dificultad:AdelantadoAdelantado

por weezer pillows

tuner correct add songbook print version text version salvar en e-mail
acordesukuleletablaturabajobateríaarmónicaflautacavacopiano Guitar Pro
acordes

Swing Life Away

	  swing life away 
rise against 
 
i noticed e-chords didn't have this tab so i  
decided to add it. 
 
|---------------0-0-0-0-0-0-0-0--| 
|--0------------3-3-3-3-3-3-3-3--| 
|----0---2-0----0-0-0-0-0-0-0-0--| 
|------0-----4--2-2-2-2-2-2-2-2--|x3 
|---------------3-3-3-3-3-3-3-3--| 
|--------------------------------| 
 
|--2-2-2-2-2-2-2-2--| 
|--3-3-3-3-3-3-3-3--| 
|--2-2-2-2-2-2-2-2--| 
|--0-0-0-0-0-0-0-0--| 
|-------------------| 
|-------------------| 
 
That's all folks! 
 
have fun! 

	  

No existe una video leccione para esta canción

request
LosAcordes
Buscar
auto avanzar rasgueos aumentar disminuir cambiar color esconder acordes gráficos
losacordes exhibir acordes losacordes youTube video losacordes ocultar tabs losacordes ir hacia arriba losacordes