Ricky Martin

Início > Ricky Mart... > acordes

Pégate Tablatura

Ricky Martin

Dificultad:ExpertoExperto

por JESSBT

tuner correct add songbook print version text version salvar en e-mail
acordesukuleletablaturabajobateríaarmónicaflautacavacopiano Guitar Pro
acordes

Pégate

	  Solamente es el intro de la cancion esta algo rapido pero se puede 
sacar practicando. 
La cancion esta en Lam y esta facil sacar los acordes 


Espero les agrade y califiquenla 


------12--17-16-17--8--10--12--------10--12--8----------------E 
----13----17-16-17--10-12--13--------12--13--10---------------B 
--14-----------------------------10---------------------------G 
14------------------------------------------------------------D 
--------------------------------------------------------------A 
--------------------------------------------------------------E 

--------------------------------------------------------------E 
-12-10----12-10-----------------------------------------------B 
-------12-------10----10--------------------------------------G 
-------------------12----12-10-9-12-10------------------------D 
---------------------------------------12-11-10-9-8-7---------A 
--------------------------------------------------------------E 

-------------------------------------------13-16-17-19--------E 
-------6-------9-12--------------------15-------------(17)*8--B 
-----7---7--9-------13------------14-16-----------------------G 
-6-9------------------14-12---p14-----------------------------D 
--------------------------------------------------------------A 
--------------------------------------------------------------E 

De: Checo
	  

No existe una video leccione para esta canción

request
LosAcordes
Buscar
auto avanzar rasgueos aumentar disminuir cambiar color esconder acordes gráficos
losacordes exhibir acordes losacordes youTube video losacordes ocultar tabs losacordes ir hacia arriba losacordes