A B C D E F G H I J K L M N O P Q R S T U V X Y Z 0-9
RBD

Início > RBD > acordes

RBD

Salvame

Dificultad:FácilFácil

por kan0nxxx

tuner corregir añadir para songbook version para impresion version de texto version rtf e-mail
acordestablaturabaixobateríaarmónicaflautacavacopiano Guitar Pro
acordes

Salvame

Áño: 2005 - Álbum: En Vivo

Tono:  C Más
Salvame Tono F#F#
Salvame Tono GG
Salvame Tono G#G#
Salvame Tono AA
Salvame Tono A#A#(Disminuir uno tono)
Salvame Tono BB(Disminuir uno semi-tono)
Salvame Tono CC(tono original)
Salvame Tono C#C#(Aumentar uno semi-tono)
Salvame Tono DD(Aumentar uno tono)
Salvame Tono D#D#
Salvame Tono EE
Salvame Tono FF
	  ESTA ES UNA ROLA QUE SE TOCA RELAX NO HAY QUE ALOCARSE NI NADA. ESTA VERSION QUE PREPARE ESTA ADAPTADA PARA 
SER TOCADA CON 3 GUITARRAS, UNA SE OCUPA DE HACER LA PARTE DEL TECLADO (GUITARRA 1), OTRA DEL ARPEGIO 
(GUTARRA 2), Y LA ULTIMA DEL ACOMPAÑAMIENTO (GUITARRA 3). 
ES UNA ROLA BIEN CHIDA Y RELAJANTE SOLO HAY QUE ESCUCHAR BIEN LAS 3 GUITARRAS Y LA ROLA PARA PODER SINCRONIZARSE. 
ESPERO LA DISFRUTEN (excuseme for the einglish, anything, asnwerme) 
 
GUITARRA 1 Y 2 COMIENZAN JUNTAS, LA 3 ES HASTA K ANAHI DIGA ?POCO A POCO EL CORAZON...? 
 
    ?INTRO? ?SE TOCA BIEN RELAX? (GUITARRA 1) 
e|----------------------------| 
B|-9---11-12---11-------------| 
G|----------------11--10--11--|  X 2 
D|----------------------------| 
A|----------------------------| 
E|----------------------------| 
 
TODA LA ROLA LLEVA ESTE ARPEGIO; SE REPITE UNA Y OTRA VEZ (GUITARRA 2). ESTAS SON LAS MISMAS NOTAS QUE DEBE  
TOCAR EL ACOMPAÑAMIETO (GUITARRA 3) 
        C#                G#m                B                 F# 
 
e|---------4------|---------4-------|-----------------|---------2-------| 
B|-----6-------6--|-----4-------4---|---------7-------|-----2-------2---| 
G|---6---6---6---6|---4---4---4---4-|-----8-------8---|---3---3---3---3-| 
D|-6--------------|-6---------------|---9---9---9---9-|-4---------------| 
A|----------------|-----------------|-9---------------|-----------------| 
E|----------------|-----------------|-----------------|-----------------| 
                                 O TAMBIEN PUEDES HACERLO ASI 
                                    COMO TE SEA MAS COMODO 
                                            \B/ 
                                   e|---------2-------| 
                                   B|-----4-------4---| 
                                   G|---4---4---4---4-| 
                                   D|-4---------------| 
                                   A|-----------------| 
                                   E|-----------------| 
 
DESPUES DE REPETIRSE 2 VECES EL INTRO SE CALLA Y SOLO SE ESCUCHA EL ARPEGIO QUE ES LA PARTE DONDE ANAHI CANTA. 
 
UN POKITO ANTES DE K DIGA ?EXTRAÑARTE ES MI NECESIDAD? SE TOCA  B|--7-| (GUITARRA 1) Y SE DEJA  
SONANDO HASTA QUE SE APAGUE AL IGUAL QUE ANTES DE K DIGA  ?SOBREVIVO POR PURA ANSIEDAD?. EN ESTA PARTE  
TRAE UNOS RUIDITOS MEDIOS RAROS GRAVES SI ALGUIEN LOS LOGRA DESIFRAR HAGANMELO SABER X FA 
 
 ESTA PARTE SE TOCA EN DONDE ANAHI DICE: POCO A POCO EL CORAZON...(GUITARRA 1).TAMBIEN ES EN ESTA  
PARTE DONDE SE INICIA EL ACOMPAÑAMIENTO(GUITARRA 3) Y SIGUE Y NO SE CALLA HASTA ACABAR LA CANCION 
 (EL ACOMPAÑAMIENTO LEVA LAS MISMAS NOTAS DEL ARPEGIO C#, G#m, B, F#) 
e|-------------------------------------| 
B|-11--11--9-12-9--9---11-9-12---11----| 
G|---------------------------------11--| 
D|-------------------------------------| 
A|-------------------------------------| 
E|-------------------------------------| 
 
?CORO? 
ESTO VA DURANTE EL CORO ?SE TOCA RELAX Y SOLO LA PARTE DE EN MEDIO UN POCO MAS RAPIDO? (GUITARRA 1) 
SALVAME DEL OLVIDO, SALVAME DE LA SOLEDAD 
SALVAME DEL HASTIO, QUE ESTOY HECHO A TU VOLUNTAD 
e|-----------------------------------| 
B|-9---11--12---11-9------9----------| 
G|-------------------11------11--13--| 
D|-----------------------------------| 
A|-----------------------------------| 
E|-----------------------------------| 
 
 
 
 
 
?SOLO? 
    ESTE ES AL PEQUEÑO SOLO QUE LLEVA LA ROLA (GUITARRA 2) 
EN ESTA PARTE SE CALLA LA GUITARRA 1 Y SOLO TOCAN LA GUITARRA 3 Y LA 2 
e|-------------------------------------------------| 
B|-11-11--9-12-9--9--11-9-12---12-12-11-9--------9-| 
G|----------------------------------------11--11---| 
D|-------------------------------------------------| 
A|-------------------------------------------------| 
E|-------------------------------------------------| 
 
 
LUEGO SIGUE LA PARTE DEL CORO OTRA VES HASTA ACABAR LA CANCION (SIGUEN TOCANDO LAS 3 GUITARRAS 
 LO K LES CORRESPONDE HASTA EL FINAL) 
 
 
 
 
CREO QUE ESO ES TODO. SI ALGO DE LA ROLA ME FALLO HAGANMELO SABER OK  
¡¡¡¡Arriba FESC-1 UNAM GOYA, GOYA!!!! 
 
 
SALE AKI LES DEJO MI MSN X SI KIEREN SALUDARME, MENTARMELA O COTORREAR UN RATO PA DESABURRIRNOS 
marco_kain@hotmail.com  
 
SALUDOS SANDY RUDA!!! (AUNQUE SE K ODIA ESTA MUSICA) 

	  

Solicitar el vídeo de "Salvame" - Descargar Salvame mp3

No existe una video leccione para esta canción

solicitar
Aumentar uno tonoAumentar uno tono
Aumentar uno semi-tonoAumentar uno semi-tono
Disminuir uno semi-tonoDisminuir uno semi-tono
Disminuir uno tonoDisminuir uno semi-tono
140

Envie sus comentários.

0 comentários

 
LosAcordes
Buscar
auto avanzar rasgueos aumentar disminuir cambiar color esconder acordes gráficos
losacordes exhibir acordes losacordes youTube video losacordes ocultar tabs losacordes cambiar notación losacordes ir hacia arriba losacordes