Pink Floyd

Início > Pink Floyd > acordes

Wish You Were Here Tablatura

Pink Floyd

Dificultad:ExpertoExperto

tuner correct add songbook print version text version salvar en e-mail
acordesukuleletablaturabaixobateriaarmónicaflautacavacopiano Guitar Pro
acordes

Wish You Were Here

Áño: 1975 - Álbum: Collection Of Great Dance Songs

	  
Intro   

e|--------------3---3-3-3-3------------3---3-3-3--------------|     
B|--------------3---3-3-3-3------------3---3-3-3--------------|     
G|--------------0---0-0-0-0---0--------0---0-0-0--------------|     
D|--------0--2--2---2-2-2-2------2--0--0---0-0-0---------0--2-|     
A|----0h2------------------------------2---2-2-2-----0h2------|     
E|--3----------------------------------3---3-3-3---3----------|     


e|--3---3-3-3------------3---3-3-3---------------3---3-3------|     
B|--3---3-3-3------------3---3-3-3---------------3---3-3------|     
G|--0---0-0-0----0-------0---0-0-0---------------0---0-0------|     
D|--2---2-2-2--2---2--0--0---0-0-0---------0--2--2---2-2------|     
A|-----------------------2---2-2-2-----0h2--------------------|     
E|-----------------------3---3-3-3---3------------------------|     


e|--------------3---3-3-3-3--------------3---3-3-3------------|     
B|--------------3---3-3-3-3--------------3---3-3-3------------|     
G|--------------0---0-0-0-0--------------0---0-0-0------------|     
D|--2--0--------2---2-2-2-2-------0--2---2---2-2-2--2--0------|     
A|--------2--0---------------0h2-------------------------2--0-|     
E|------------------------------------------------------------|     


e|--3---3-3-3-3-----------------------------------------------|     
B|--3---3-3-3-3-----------------------------------------------|     
G|--0---0-0-0-0-----------------------------------------------|     
D|--2---2-2-2-2-----------------------------------------------|     
A|---------------0h2--0---------------------------------------|     
E|-----------------------3------------------------------------|     


Intro Solo  


e|--------------------------------3/5--3----------------------|     
B|------3--5---3------------------3/5--3--3/5---3p0-----------|     
G|--2/4------4---4p2p0--------------------2/4---2p0-----------|     
D|---------------------0-----0-0------------------------------|     
A|-----------------------1/2----------------------------------|     
E|------------------------------------------------------------|     



e|------------------------------------------------------------|     
B|--3/5\3p0--------------3----5----6r5p3-----3----------------|     
G|--2/4\2p0---2/4---2/4-----4-------------4-----4----2--------|     
D|------------3/5---------------------------------------------|     
A|------------------------------------------------------------|     
E|------------------------------------------------------------|     



e|------------------------------------------------------------|     
B|------3--5------------------3-----5---5b6---5p3---5---------|     
G|--4b6-------4b6---2----2/4-----4----------------------2-----|     
D|------------------------------------------------------------|     
A|------------------------------------------------------------|     
E|------------------------------------------------------------|     



e|---------------3--------------------------------------------|     
B|---------------3--------------------------------------------|     
G|---4b6r4---2---0--------------------------------------------|     
D|---------------0--------------------------------------------|     
A|---------------2--------------------------------------------|     
E|---------------3--------------------------------------------|     


Solo     


e|---------10--10---------10--10-------------10/12--10--10----|     
B|--10/12----------10/12----------12\10--8--------------------|     
G|------------------------------------------------------------|     
D|------------------------------------------------------------|     
A|------------------------------------------------------------|     
E|------------------------------------------------------------|     



e|---------------------------------10--10-10---10/12---10-----|     
B|--10b12--10--8--10b12-----10/12-----------------------------|     
G|------------------------------------------------------------|     
D|------------------------------------------------------------|     
A|------------------------------------------------------------|     
E|------------------------------------------------------------|     



e|------------------------------------------------------------|     
B|--12r10p8--7-----------------------------8-----8--10p8------|     
G|--------------7-----7---9------7-7--7/9-----9---------------|     
D|-----------------9---------7/9------------------------------|     
A|------------------------------------------------------------|     
E|------------------------------------------------------------|     



e|-----------------------------------------------------10-----|     
B|--10b12---12r10p8----10--------12r10p8-----8--10/12------8--|    
G|-------------------------9--9-----------9-------------------|     
D|------------------------------------------------------------|     
A|------------------------------------------------------------|     
E|------------------------------------------------------------|     



e|--------------------10--------------------------------------|     
B|-------8-----10/12------12\10--8-----8--10p8--10b12---------|     
G|--7/9-----9-----------------------9-------------------------|     
D|------------------------------------------------------------|     
A|------------------------------------------------------------|     
E|------------------------------------------------------------|     



e|-------------------12---------------------------------------|     
B|--12r10p8----12/14-----14\12---10------10-------------------|     
G|-----------------------------------11-----------------------|     
D|------------------------------------------------------------|     
A|------------------------------------------------------------|     
E|------------------------------------------------------------|   

	  

there is a video lesson for this song
view full video
LosAcordes
Buscar
auto avanzar rasgueos aumentar disminuir cambiar color esconder acordes gráficos
losacordes exhibir acordes losacordes youTube video losacordes ocultar tabs losacordes ir hacia arriba losacordes