A B C D E F G H I J K L M N O P Q R S T U V X Y Z 0-9
Pink Floyd

Início > Pink Floyd > acordes

Pink Floyd

Wish You Were Here

Dificultad:ExpertoExperto

tuner corregir añadir para songbook version para impresion version de texto version rtf e-mail
acordestablaturabaixobateriaarmónicaflautacavacopiano Guitar Pro
acordes

Wish You Were Here

Áño: 1975 - Álbum: Collection Of Great Dance Songs

	     INTRO:	(Guitarra 1,Riff 1)
   		Em7				 G
e|-|----------||----------3--3-3------3---------|-------3----3----3-----------|
B|-|----------||------3-3-3--3-3----3-3---------|-----3-3----3----3-----------|
G|-|----------||------0-0-0--0-0-0--0---0-------|-----0-0-0--0----0-----------|
D|-|-------0--||--2--------------2----------2---|-0-------0--0--------------0-|
A|-|---0h2----||--------------------------------|-----------------------0h2---|
E|-|-3--------||--------------------------------|---------3--3-------3--------|

    Em7					 G
e|-|----------3---3-3-3-3---------------|-------3-----3-----3---------------|
B|-|------3---3---3-3-3-3---------------|-----3-3-----3-----3---------------|
G|-|------0---0---0-0-0-0------0--------|-----0-0-0---0-----0---------------|
D|-|--2--------------------2--------2---|-0-------0---------------------0---|
A|-|------------------------------------|--------------------------0h2------|
E|-|------------------------------------|---------3-------------3-----------|

    Em7					 A7sus4
e|-|------3-3-3---3-3-3-3---------------|----------3-3-3---------3-3---------|
B|-|------3-3-3---3-3-3-3---------------|----------3-3-3---------3-3---------|
G|-|------0-0-0---0-0-0-0---------------|----------0-0-0---------------------|
D|-|--2--------------------2---0--------|------2-------2------------------0--|
A|-|-------------------------------2----|--0-----------0--------------0h2----|
E|-|------------------------------------|------------------------------------|

    Em7					A7sus4
e|-|------3-3-3---3-3-3-3-------------|----------3-----------3---------------|
B|-|------3-3-3---3-3-3-3-------------|----------3-----------3------3------3-|
G|-|------0-0-0---0-0-0-0-------------|----------0------------------0----0-0-|
D|-|--2-------------------2---0-------|------2-2----------------2-0-0----0-0-|
A|-|------------------------------2---|--0-------------0------------0h2------|
E|-|----------------------------------|--------------------------------------|

      G						     (Fim do Riff 1)
e|-|---3-------3-------3-----------3-3-|-3-----------3-3-3-----------------|
B|-|---3---3-3-3-------3-----------3-3-|-3-----------3-3-3-----------------|
G|-|---0---0-0-0-------0-----------0-0-|-0-----------0-0-0-----------------|
D|-|---0---0---0-------0-------0---0-0-|-0-------0---0-0-0-------------0---|
A|-|---2---2-----------2-----------2-2-|-2-----------2-2----------0h2------|
E|-|---3-----------3---3---3---------3-|-3---3---------3------3------------|

SOLO:(Guitarra 2 acompanhado do Riff 1)
    Em7					   G
e-|-----------|---------------------|-------------------------|
B|-|----------3|-5-----3-------------|-------------------------|
G|-|-----2/4---|----4-----4p2p0t-----|-------------------------|
D|-|-----------|---------------------|--0----------0--0--------|
A|-|-----------|---------------------|-------0h2---------------|
E|-|-----------|---------------------|-------------------------|

    Em7					      G
e|-|---3/5--3-----------------------------|-------------------------|
B|-|---3/5--3--3/5-3-0--3/5-3p0-0---------|-------------------------|
G|-|-----------2/4-2-0--2/4-2p0-0---------|-------------------------|
D|-|--------------------------------------|-------------------------|
A|-|--------------------------------------|-------------------------|
E|-|--------------------------------------|-------------------------|

    Em7					  A7sus4
e|-|-----------------|-----------------|-----------------------|
B|-|---------3-----5-|---7p6p5---5-----|-1/2---3-5---1/2-------|
G|-|----2/4-----4----|---------7---2---|-----------------2-----|
D|-|-----------------|-----------------|-----------------------|
A|-|-----------------|-----------------|-----------------------|
E|-|-----------------|-----------------|-----------------------|

    Em7				      A7sus4              G
e|-|------------|------------|----------|--------------------3-|
B|-|-----3---5--|-6^-5---5---|----------|------------------3-3-|
G|-|-2/4---4----|------7---2-|-4^--2----|------------------0-0-|
D|-|------------|------------|----------|------------------0-0-|
A|-|------------|------------|----------|----------------------|
E|-|------------|------------|----------|----------------------|

e|-|--3--------3-----3--------3----|
B|-|--3------3-3-----3------3-3-3--|
G|-|--0------0-0-----0------0-0-0--|
D|-|--0------0-0-----0------0-0-0--|
A|-|--2------2-------2-------------|
E|-|--3------3-------3-------------|

Verso:
C                         D/F#
So, so you think you can tell
             Am/E                  G                         D/F#
Heaven from hell, Blue skies from pain. Can you tell a green field
                  C                    Am                         G
From a cold steel rail, A smile from a veil? Do you think you can tell?
                    C                       D/F#                  Am/E
Did they get you to trade, Your heroes for ghosts, Hot ashes for trees,
                G                           D/F#              C
Hot air for a cool breeze, Cold comfort for change? Did you exchange
                      Am                          G
A walk on part in the war, For a lead role in a cage?

SOLO:(Com scat vocal e Riff 1)
    Em7					      G
e|-|-------------------------------/10------|--/12--10----------------------|
B|-|--/12--12--10/12--12----10/12-------12-|-------------------/12--12-12-|
G|-|----------------------------------------|-------------------------------|
D|-|----------------------------------------|-------------------------------|
A|-|----------------------------------------|-------------------------------|
E|-|----------------------------------------|-------------------------------|

    Em7				      G
e|-|-----10------------------------|--------------------------|
B|-|-/12------/1211/12-12------12-|---7----------------------|
G|-|--------------------------------|------7-------------------|
D|-|--------------------------------|----------7/9-------------|
A|-|--------------------------------|--------------------------|
E|-|--------------------------------|--------------------------|

    Em7					 A7sus4
e|-|-------10--------10-10--------------|-------12------------------------|
B|-|-10/12-------/12------------15-----|-12/14--------14--/14-14-14-14-|
G|-|--------------------------------12-|---------------------------------|
D|-|------------------------------------|---------------------------------|
A|-|------------------------------------|---------------------------------|
E|-|------------------------------------|---------------------------------|

    Em7					    A7sus4		       G
e|-|--------10-----------------------------|-------12------------------/10--||
B|-|--10/12---------12----------12--------|-12/14--------1410--------/10--||
G|-|-----------------------12/14----12/14--|--------------------------------||
D|-|---------------------------------------|--------------------------------||
A|-|---------------------------------------|--------------------------------||
E|-|---------------------------------------|--------------------------------||

Verso:
C                               D/F#
How I wish, how I wish you were here,
           Am/E                                G                  D/F#
We're just two lost souls swimming in a fish bowl, Year after year,
                                C                                    Am
Running over the same old ground,  What have we found?  The same old fears,
               G
Wish you were here.

Riff 1

SOLO:(Com Riff 1, scat vocal duplo)
    G				     Em7
e|-|--------------------------------|--------------------------------|
B|-|----3---3--5---------3---3--5---|----10/12-10--8-8---------------|
G|-|------4--------4---4---4--------|------------------7--9---9/12---|
D|-|--------------------------------|--------------------------------|
A|-|--------------------------------|--------------------------------|
E|-|--------------------------------|--------------------------------|

    G			  Em7
e|-|---------------------|------------------------10--1210------|
B|-|----3--0--3---5------|---8---8--10--8--10/12------------/12--|
G|-|---------------------|-----9---------------------------------|
D|-|---------------------|---------------------------------------|
A|-|---------------------|---------------------------------------|
E|-|---------------------|---------------------------------------|

    G				  Em7
e|-|-------7---------------------|--------10-10-------10-10-------10-10-|
B|-|---/12---10p8-----/12-/12----|--10/12-------10/12-------10/12-------|
G|-|--------------9-7------------|--------------------------------------|
D|-|-----------------------------|--------------------------------------|
A|-|-----------------------------|--------------------------------------|
E|-|-----------------------------|--------------------------------------|

	     A7sus4				  Em7
e|-|--------------12-12------------10--------12--|--------10-------------------|
B|-|-10/1210-/14------------10/12-----12/14-----|--10/12-------8----8---8---8-|
G|-|---------------------------------------------|---------------------9---9---|
D|-|---------------------------------------------|-----------------------------|
A|-|---------------------------------------------|-----------------------------|
E|-|---------------------------------------------|-----------------------------|

			   (início do fade com o Riff 1)
    A7sus4		  G		   
e|-|---------------------|---------------|-------------------------||
B|-|---8---8-10----------|---------------|-------------------------||
G|-|-----9---------------|---------------|-------------------------||
D|-|---------------------|---------------|-------------------------||
A|-|---------------------|---------------|-------------------------||
E|-|---------------------|---------------|-------------------------||
	  

Solicitar el vídeo de "Wish You Were Here" - Descargar Wish You Were Here mp3

-by-pink-floyd Tocar

Existe una video leccione para esta canción

vea ahora

Aumentar uno tonoAumentar uno tono
Aumentar uno semi-tonoAumentar uno semi-tono
Disminuir uno semi-tonoDisminuir uno semi-tono
Disminuir uno tonoDisminuir uno semi-tono
140

Envie sus comentários.

6 comentários

SpytunesGuruSpytunesGuru
hace 1072 años atrás
You can get a full video guitar lesson of wish you were here! http://spytunes.com/acoustic-guitar/advanced-songs/wish-you-were-here-chords
wired247wired247
hace 1193 años atrás
thank you, another well broken down way to play wish you were here by pink floyd
nathaaallliaaanathaaallliaaa
hace 1255 años atrás
exatamente o que eu estava procurando! muito obrigado!
 
LosAcordes
Buscar
auto avanzar rasgueos aumentar disminuir cambiar color esconder acordes gráficos
losacordes exhibir acordes losacordes youTube video losacordes ocultar tabs losacordes cambiar notación losacordes ir hacia arriba losacordes