Patricio Rey y sus Redonditos de Ricota

Início > Patricio R... > acordes

Un Angel Para Tu Soledad Tablatura

Patricio Rey y sus Redonditos de Ricota

Dificultad:ExpertoExperto

por amauryy

tuner correct add songbook print version text version salvar en e-mail
acordesukuleletablaturabajobateríaarmónicaflautacavacopiano Guitar Pro
acordes

Un Angel Para Tu Soledad

	  hola como estan espero que la disfruten. 
no se asusten si es un poco larga porque esta bien explicada. 
si lo entienden mejor, pero si le cuesta sacar el ritmo 
pongan el tema y traten de seguirlo. 

cuando hagan G haganlo con cejilla en el tercer casillero 

intro 
riff 1 
guitarra 
e---------------------------------- 
B---------------3--5-3-3----------- 
G-2--4-2--2-0----------------------   se repite 4 veces 
D-------------4------------4-5----- 
A---------------------------------- 
E---------------------------------- 
bajo 
G---------------------------------- 
D----------------------------------   4 veces 
A-555555555555555------------------ 
E-----------------33333333333333333 

riff 2 
guitarra 
e---0-----0-----0-----0------------ 
B---2-----2-----2-----2------------ 
G---2-----2-----2-----2------------ 
D----------------------------------    4 veces 
E---------------------------------- 
A---------------------------------- 
bajo 
G---------------------------------- 
D---------------------------------- 
A----------------------------------    4 veces 
E-0---0-2---2-3---3-0-------------- 

(4 veces el riff 1 durante la 1° estrofa)  
Ya sufriste cosas mejores que éstas 
y vas a andar esta ruta, hoy,cuando anochezca. 
Tu esqueleto te trajo hasta aquí 
con un cuerpo hambriento, veloz 
y aquí ¡Gracias a dios! 
uno no cree en lo que oye. 

(ahora 4 veces el riff 2)  
Angel de la soledad 
y de la desolación 
preso de tu ilusión vas a bailar, 
a bailar... bailar. 

(riff 1 2 veces)  
Es tan simple, así 
no podés elegir 
Claro que no siempre, ves? 
resulta bien 

A          Bm 
 Atado con doble cordel 
G           D 
 el de simular, 
Bm               F#m 
 no querés girar   maniatado, 
G           A 
 querés faulear... 
y arremolinar. 

solo 
e----------------------------------- 
B---10-10----10-----10-10-----10-10- 
G-7------7-7-----7-7------7-7------- 
D----------------------------------- 
A----------------------------------- 
E----------------------------------- 

e------------------------------- 
B-----8-8-----8------8-8-----8-8 
G-5-5-----5-5----5-5-----5-5---- 
D------------------------------- 
A------------------------------- 
E------------------------------- 
 (de nuevo los 2) el bajo se mantiene pasando de D a G 

A              B 
 Medís tu acrobacia y saltás. 
G           D 
 Tu secreto es: 
Bm             F#m 
 La suerte del   principiante 
G             A 
 no puede fallar. 

e-----------------------0-2-3-5- 
B-------------------2-3--------- 
G-------------0-2-4------------- 
D-------0-2-4------------------- 
A-0-2-4------------------------- 
E------------------------------- 

(4 veces el riff 1)  
Alguna vez, quizá, se te va la mano 
y las llamas en pena invaden tu cuerpo 
y caés en manos del Angel de la Soledad 
y él ¡Gracias a dios! 
tampoco cree en lo que oye. 

(4 veces el riff 2)  
Angel de la soledad 
y de la desolación 
preso de tu ilusión vas a bailar, 
a bailar...bailar. 


D  D D  D G  G G     (toca el acorde y corta el sonido) 4 veces 


el bajo nunca para pasa de D a G 
	  

No existe una video leccione para esta canción

request
Aumentar uno tonoAumentar uno tono
Aumentar uno semi-tonoAumentar uno semi-tono
Disminuir uno semi-tonoDisminuir uno semi-tono
Disminuir uno tonoDisminuir uno semi-tono
LosAcordes
Buscar
auto avanzar rasgueos aumentar disminuir cambiar color esconder acordes gráficos
losacordes exhibir acordes losacordes youTube video losacordes ocultar tabs losacordes ir hacia arriba losacordes