A B C D E F G H I J K L M N O P Q R S T U V X Y Z 0-9
Paco de Lucía

Início > Paco de Lu... > acordes

Paco de Lucía

Entre dos aguas

Dificultad:ExpertoExperto

por europeu

tuner corregir añadir para songbook version para impresion version de texto version rtf e-mail
acordestablaturabajobateríaarmónicaflautacavacopiano Guitar Pro
acordes

Entre dos aguas

	  |------------------------------| 
|------------------------------| 
|------------------------------| 
|------------------------------| 
|-0---0-----0-1-2----2---2-1-0-| 
|---0----0---------2---2-------| 
 
introduccion accordes  0 :11                                                                           
|--0----------------|------------------|--2----------------| 
|--1----------------|------------------|--3----------------| 
|--0----------------|------------------|--2----------------| 
|-------------------|------------------|-------------------| 
|--0----------------|------------------|--2----------------| 
|-------------------|------------------|-------------------| 
 
paco dale que te pego 0 :22 
--------------------3-|--3--2--2--0--0----------|---------------0--2--3--| 
----------------------|-----------------3----3--|----1----1--3-----------| 
----------------------|-------------------------|------------------------| 
----------------------|-------------------------|------------------------| 
----------------------|-------------------------|------------------------| 
----------------------|-------------------------|------------------------| 
 
 
--5--3--3--2--2--2--2--2--|----0------------0--2--|--3--2--2--0--0---| 
--------------------------|-------3------3--------|------------------| 
--------------------------|-----------------------|------------------| 
--------------------------|-----------------------|------------------| 
--------------------------|-----------------------|------------------| 
--------------------------|-----------------------|------------------| 
 
 
------------------0-|-2-0----0-----0---------| 
--3--3--1---1--3----|-----4-----1-----4-1-0--| 
--------------------|------------------------| 
--------------------|------------------------| 
--------------------|------------------------| 
--------------------|------------------------| 
 
0 : 33 
--3--2--2--0--0----------|---------------0--2--3--|--5--------3--2--0-----| 
-----------------3----3--|----1----1--3-----------|--------------------3--| 
-------------------------|------------------------|-----------------------| 
-------------------------|------------------------|-----------------------| 
-------------------------|------------------------|-----------------------| 
-------------------------|------------------------|-----------------------| 
  
------------------0--2--|--3--------2--0--------|----------------------0--| 
----3----0--1--3--------|-----------------3--1--|--1--1-------0--1--3-----| 
------------------------|-----------------------|----------2--------------| 
------------------------|-----------------------|-------------------------| 
------------------------|-----------------------|-------------------------| 
------------------------|-----------------------|-------------------------| 
  
--2-0----------------|----2--0-----0--2--3--5--|--3--2--0---------------| 
------4--------------|----------4--------------|-----------3--1------0--| 
---------------------|-------------------------|------------------------| 
---------------------|-------------------------|------------------------| 
---------------------|-------------------------|------------------------| 
---------------------|-------------------------|------------------------| 
  
-----------------------3--|--2--0--------------------| 
-----------------0--1-----|--------3--1--0-----------| 
--2--0-----0--2-----------|-----------------2--0-----| 
--------4-----------------|-----------------------4--| 
--------------------------|--------------------------| 
--------------------------|--------------------------| 
  
--------------------------|----------------0-------|-------------------------| 
--------0-----------0--1--|--3----1--0--1-----4----|--0--1--0-----0--1----0--| 
--0--2-----2--0--2--------|------------------------|-----------3-------------| 
--------------------------|------------------------|-------------------------| 
--------------------------|------------------------|-------------------------| 
--------------------------|------------------------|-------------------------| 
0 : 53  
----------------------|-------------3--3--3--|--3----2----5----3--7--| 
----0----0----0----0--|--0-------------------|-----------------------| 
----------------------|----------------------|-----------------------| 
----------------------|----------------------|-----------------------| 
----------------------|----------------------|-----------------------| 
----------------------|----------------------|-----------------------| 
  
----5----8----7--10--8--|--7----5--3--2--3--2--0--|-------------0--2--3--| 
------------------------|-------------------------|--------3-------------| 
------------------------|-------------------------|----------------------| 
------------------------|-------------------------|----------------------| 
------------------------|-------------------------|----------------------| 
------------------------|-------------------------|----------------------| 
  
--8----7--5--3--2--0-----|-------------------|-------------------------| 
----------------------3--|--1----------------|--0--1--4--1--0----0--1--| 
-------------------------|-------------------|-------------------------| 
-------------------------|-------------------|-------------------------| 
-------------------------|-------------------|-------------------------| 
-------------------------|-------------------|-------------------------| 
1 :04  
-----------------0--2--3--|----2----5----3--2--5--|----3--2--7--5--3--2--5--| 
--4--1--0--1--4-----------|-----------------------|-------------------------| 
--------------------------|-----------------------|-------------------------| 
--------------------------|-----------------------|-------------------------| 
--------------------------|-----------------------|-------------------------| 
--------------------------|-----------------------|-------------------------| 
  
--3----2--0-----------|----5--3--2--3--5--7--8--|--10----8--7--8--12--10----| 
-------------3--------|-------------------------|---------------------------| 
----------------------|-------------------------|---------------------------| 
----------------------|-------------------------|---------------------------| 
----------------------|-------------------------|---------------------------| 
----------------------|-------------------------|---------------------------| 
  
--8--7--8--7--6--7--8--7--|----7----7--------7--|------------------| 
--------------------------|---------------------|------------------| 
--------------------------|---------------------|------------------| 
--------------------------|---------------------|------------------| 
--------------------------|---------------------|------------------| 
--------------------------|---------------------|------------------| 
1 : 16  
--0----------------|----0------------------|----0----------------| 
--4----------------|----4------------------|----0----------------| 
--5----------------|----5----0-----2--0----|----2----------------| 
--7----------------|----7-------4----------|----4----2--0--------| 
-------------------|-----------------------|---------------------| 
-------------------|-----------------------|---------------------| 
 
1 : 20 
--0----------0--------0--|----------------------|-------------------| 
--0----------0--------1--|----------------------|-------------------| 
--2----------2--------0--|----------------------|-------------------| 
--4----2--0--4--2--0--2--|----0-----------------|-------------------| 
-------------------------|-------3----2------3--|--1----------------| 
-------------------------|----------------------|-------------------| 
1 : 24  
-------------------------|------------------------|---------------0--3--| 
-------0--1-----0--1-----|----0--1-------0-----0--|--1------------------| 
-------------------------|------------------------|--0------------------| 
-------------------------|------------------------|--2------------------| 
--2----------2--------2--|----------2-------2-----|--2------------------| 
-------------------------|------------------------|---------------------| 
  
 
 
 
 
--7------5----------|----------------5--3--2--|------------------| 
--------------------|----------0--3-----------|------------------| 
--------------------|-------------------------|------------------| 
--------------------|-------4-----------------|------------------| 
--------------------|----2--------------------|------------------| 
--------------------|-------------------------|------------------| 
  
----------------3--2--0--|------------------|---------------------------| 
-------------1-----------|------------------|--1-0---1-0--------1-0---1-| 
----------0--------------|------------------|------3----------------3---| 
-------2-----------------|------------------|---------------------------| 
----0--------------------|------------------|---------------------------| 
-------------------------|------------------|---------------------------| 
 1 : 37 
-----------------3--|--3--2--2--0--0----------|----------------------0--| 
--0-----------------|-----------------3----3--|----1-----------1--3-----| 
--------------------|-------------------------|-------------0-----------| 
--------------------|-------------------------|----------2--------------| 
--------------------|-------------------------|-------0-----------------| 
--------------------|-------------------------|-------------------------| 
 
--2--3--5--3--3--2--2--0--|--0------------0----2--|--3--2--2--0--0----------| 
--------------------------|-----3--3--------------|-----------------3----3--| 
--------------------------|-----------------------|-------------------------| 
--------------------------|-----------------------|-------------------------| 
--------------------------|-----------------------|-------------------------| 
--------------------------|-----------------------|-------------------------| 
  
 
----------------------0--|--2----0-----0-----0-----|----------------------| 
----1-----------1--3-----|----------4-----1-----4--|----1--0-----0--------| 
-------------0-----------|-------------------------|----------3-----------| 
----------2--------------|-------------------------|----------------------| 
-------0-----------------|-------------------------|----------------------| 
-------------------------|-------------------------|----------------------| 
1 : 49 
--7----5--3--2--0--------|-------------0----2--3--|--8----7--12--10------8--| 
-------------------3--1--|----0--1--3-------------|-------------------------| 
-------------------------|------------------------|-------------------------| 
-------------------------|------------------------|-------------------------| 
-------------------------|------------------------|-------------------------| 
-------------------------|------------------------|-------------------------| 
1 : 52 
----14----14--14--15--15--17--|--17----15--14--15--14--12--14--| 
------------------------------|--------------------------------| 
------------------------------|--------------------------------| 
------------------------------|--------------------------------| 
------------------------------|--------------------------------| 
------------------------------|--------------------------------| 
                                                          
----12--11--12----14--15--15--|--15----------15--15----| 
------------------------------|------------------------| 
------------------------------|------------------------| 
------------------------------|------------------------| 
------------------------------|------------------------| 
------------------------------|------------------------| 
  
--------14--14--12--10----|--12----10--------8----|----7----8--10--12--14--15--| 
--------------------------|-----------------------|----------------------------| 
--------------------------|-----------------------|----------------------------| 
--------------------------|-----------------------|----------------------------| 
--------------------------|-----------------------|----------------------------| 
--------------------------|-----------------------|----------------------------| 
                                                            
--17--15--15--14--14--12--12----|------------10--12--14--| 
--------------------------------|------------------------| 
--------------------------------|------------------------| 
--------------------------------|------------------------| 
--------------------------------|------------------------| 
--------------------------------|------------------------| 
 
 
 
 
 
 
--15--14--14--12--12----12--10--|----8--------------|-----------------------| 
--------------------------------|-------------------|-----------------------| 
--------------------------------|-------------------|-----------------------| 
--------------------------------|-------------------|------0------------2-0-| 
--------------------------------|-------------------|----7---4--------------| 
--------------------------------|-------------------|-----------------------| 
 2 : 10 
---------------------|--3------2--0----------|--------------0--2--3--| 
---------------------|---------------3----1--|--------1--3-----------| 
---------------------|-----------------------|-----------------------| 
---------------------|-----------------------|-----------------------| 
--3----2--------2----|-----------------------|-----------------------| 
---------------------|-----------------------|-----------------------| 
 
  
--5--3--3--2--2--0-------|--------------------0--|--3--2--2--0--0----------| 
----------------------3--|--3--------0--1--3-----|-----------------3----1--| 
-------------------------|-----------------------|-------------------------| 
-------------------------|-----------------------|-------------------------| 
-------------------------|-----------------------|-------------------------| 
-------------------------|-----------------------|-------------------------| 
 
  
----------------------|--2--0--0--------------|------------------| 
-------------0--1--3--|-----------4--4--------|------------------| 
----------2-----------|-----------------------|------------------| 
----------------------|-----------------------|------------------| 
----------------------|-----------------------|------------------| 
----------------------|-----------------------|------------------| 
2 :20  
-------------------|------------------|--0---------0-------0--| 
--0----------------|------------------|--0------0--0----0--0--| 
--2----------------|------------------|--0---------0-------0--| 
--1----------------|------------------|-----------------------| 
--2----------------|------------------|-----------------------| 
-------------------|------------------|-----------------------| 
 
                         Cambio de Ritmo 2 :23 
----------0--------0----|-------------------------|------------------------| 
----0-----0--0-----0----|--3----3-----3--3-----3--|----3-----3--3-----3----| 
-------0--0-----0--0----|--2-------2--2-----2--2--|-------2--2-----2--2----| 
------------------------|--4----------4--------4--|----------4--------4----| 
------------------------|-------------------------|------------------------| 
------------------------|-------------------------|------------------------| 
  
                                                                             
------------------------|------------------------|-------------------------| 
--1---------1--1-----1--|----1-----1--1-----1----|--0----0--------0--------| 
--0----0----0-----0--0--|-------0--0-----0--0----|-------------4--------4--| 
--2---------2--------2--|----------2--------2----|--4-------4--4-----4--4--| 
------------------------|------------------------|--6----------6--------6--| 
------------------------|------------------------|-------------------------| 
 
  
---------------------|--0---------------0--|--------0-------0-----| 
---------------2--4--|-----------4---------|-----------4-------4--| 
------------4--------|---------------------|----------------------| 
---------------------|---------------------|----------------------| 
---------------------|---------------------|----------------------| 
---------------------|---------------------|----------------------| 
 
  
---------------------|----------------------|---------------------| 
--3--------2------3--|--------3--2----3--2--|--1--------0----1----| 
---------------------|----------------------|---------------------| 
---------------------|----------------------|---------------------| 
---------------------|----------------------|---------------------| 
---------------------|----------------------|---------------------| 
 
  
------------------------|---------------------|------------------| 
------------------1--0--|--0---------0--------|------------------| 
-------0--2--3----------|---------------------|------------------| 
----4-------------------|---------4-----------|------------------| 
------------------------|---------------------|------------------| 
------------------------|---------------------|------------------| 
 
  
-----3--2--3----------|-------0--2--3--2--5--3--|----2--0-------------| 
--1-------------------|-------------------------|----------3----------| 
----------------------|----4--------------------|---------------------| 
----------------------|-------------------------|---------------------| 
----------------------|-------------------------|---------------------| 
----------------------|-------------------------|---------------------| 
 
  
-------------0--2--3--2--|----0----------------|----------------0--3--2--| 
----0--1--3--------------|-------3--1----------|-------0--1--3-----------| 
-------------------------|---------------------|----2--------------------| 
-------------------------|---------------------|-------------------------| 
-------------------------|---------------------|-------------------------| 
-------------------------|---------------------|-------------------------| 
 
                                                        
----0---------------|----------0-2-3-5-3-2-0---0-2-3-| 
-------4------------|----0-2-4---------------4-------| 
--------------------|--------------------------------| 
--------------------|--------------------------------| 
--------------------|--------------------------------| 
--------------------|--------------------------------| 
 
  
--0-----3--2--5--3--7--5--|--8--7--10--12------------------| 
-----0--------------------|----------------12--10----------| 
--------------------------|------------------------12--11--| 
--------------------------|--------------------------------| 
--------------------------|--------------------------------| 
--------------------------|--------------------------------| 
 
  
-------------------------|--10----8--7--5--3--2--3--|----2--0--2--3--8------| 
----------------5--7--8--|--------------------------|-----------------------| 
----9--7--6--7-----------|--------------------------|-----------------------| 
-------------------------|--------------------------|-----------------------| 
-------------------------|--------------------------|-----------------------| 
-------------------------|--------------------------|-----------------------| 
 
  
----7----5--3--2--3--5--|----3--2------------|----------0-2-3-5-3-2-0---0-3-2-| 
------------------------|--------------------|----0-2-4---------------4-------| 
------------------------|--------------------|--------------------------------| 
------------------------|--------------------|--------------------------------| 
------------------------|--------------------|--------------------------------| 
------------------------|--------------------|--------------------------------| 
 
  
--0---0-2-3-5-3-2-0---------------|----------------------------------| 
----0---------------3-1-0-1-3-1-0-|--------0-------------------------| 
----------------------------------|--2-0-2---2-0---------------------| 
----------------------------------|--------------4-2-0---0-2-0-------| 
----------------------------------|--------------------3-------3-2-3-| 
----------------------------------|----------------------------------| 
 
  
-------------------------|----------------------|-----------------------| 
--------------3--1----0--|----------------------|-----------------------| 
-----------2-------------|----2----0------------|-----------------------| 
--0--0--4----------------|--------------4----2--|----0------------------| 
-------------------------|----------------------|-------3--2--1------1--| 
-------------------------|----------------------|-----------------------| 
 
  
---------------------|----------------------|---------------------| 
---------------------|----0-------0------0--|----0----0--0--------| 
--0------------------|----------------------|---------------------| 
---------------------|---------4------------|---------------------| 
---------1--------2--|----------------------|---------------------| 
---------------------|----------------------|---------------------| 
 
                                                             
 
 
----------------2--3--5--|--6--7--12--15--12--------------| 
----0--5--4--5-----------|--------------------12----------| 
-------------------------|------------------------13--12--| 
-------------------------|--------------------------------| 
-------------------------|--------------------------------| 
-------------------------|--------------------------------| 
  
----------------------|-----------5--10--8--7--|--0------------------| 
----------------------|--------7---------------|--1------------------| 
----11----9--7--------|------------------------|--0------------------| 
----------------------|------------------------|---------------------| 
----------------------|------------------------|---------3------2----| 
----------------------|------------------------|---------------------| 
 
  
---------0--3--8--7--0--|---------------------|-------------------| 
------------------------|--4------------------|-------------------| 
------------------------|--4------------------|-------------------| 
------------------------|--4------------------|-------------------| 
--1---------------------|---------2------1----|--2----------------| 
------------------------|---------------------|-------------------| 
 
  
-----------------------|-----------------------|---------------------| 
--0--1--0-----0--------|--------------0--1--0--|---------------------| 
-----------3-----------|--------0--2-----------|----2--1--2----------| 
-----------------------|-----------------------|---------------------| 
-----------------------|-----------------------|---------------------| 
-----------------------|-----------------------|---------------------| 
 
  
-----------------------|---------------------|-----------------------| 
-----------------0-----|---------------------|-----------------------| 
-----------0--2-----2--|----0-----0----------|--------------0--2--0--| 
--------4--------------|-------4-------------|--------2--4-----------| 
-----------------------|---------------------|-----------------------| 
-----------------------|---------------------|-----------------------| 
  
---------------------|-------------------------|--------------------------| 
---------------------|----------0-----0-----0--|--1--0-----1--0-----1--0--| 
---------------------|----4--3-----3-----3-----|--------3--------3--------| 
----4--3--4----------|-------------------------|--------------------------| 
---------------------|-------------------------|--------------------------| 
---------------------|-------------------------|--------------------------| 
 
                                                       
--------------------------|-------------------------| 
-----1--0-----1--0--------|-------------------0--1--| 
--3--------3--------3--2--|----1--2-----0--2--------| 
--------------------------|----------4--------------| 
--------------------------|-------------------------| 
--------------------------|-------------------------| 
 
  
-----0--2--3--10--8--7--8--|----7--5--7----5--4--5--|----3--2--3----2--0--2--| 
--3------------------------|------------------------|------------------------| 
---------------------------|------------------------|------------------------| 
---------------------------|------------------------|------------------------| 
---------------------------|------------------------|------------------------| 
---------------------------|------------------------|------------------------| 
 
  
----0-----0-------------|-----------------------|-----------------------| 
-------4-------3--2--3--|----1--0--1----0-------|--0--1--0-----0--------| 
------------------------|------------------3----|-----------1-----------| 
------------------------|-----------------------|-----------------------| 
------------------------|-----------------------|-----------------------| 
------------------------|-----------------------|-----------------------| 
 
  
-----------------------|----------------------|-----------------------| 
--------------0--1--0--|----------------------|-----------------0-----| 
--------0--2-----------|----2--1--2--2--------|---------0----2-----2--| 
-----------------------|----------------------|----4------------------| 
-----------------------|----------------------|-----------------------| 
-----------------------|----------------------|-----------------------| 
 
  
---------------------|-----------------------|---------------------| 
---------------------|-----------------------|---------------------| 
----0-----0----------|--------------0--2--0--|---------------------| 
-------4-------------|--------2--4-----------|----4--3--4----------| 
---------------------|-----------------------|---------------------| 
---------------------|-----------------------|---------------------| 
 
  
------------------|--0---------0-------0--|----------0--------0----| 
------------------|--0------0--0----0--0--|----0-----0--0-----0----| 
------------------|--0---------0-------0--|-------0--0-----0--0----| 
------------------|-----------------------|------------------------| 
------------------|-----------------------|------------------------| 
------------------|-----------------------|------------------------| 
 
  
-------------------------|------------------------|------------------------| 
--3----3-----3--3-----3--|----3-----3--1-----3----|--1---------1--1-----1--| 
--2-------2--2-----2--2--|-------2--2-----2--2----|--2----0----0-----0--0--| 
--4----------4--------4--|----------4--------4----|--4---------2--------2--| 
-------------------------|------------------------|------------------------| 
-------------------------|------------------------|------------------------| 
 
  
------------------------|-------------------------|---------------------| 
----1-----1--1-----1----|--0----0--------0--------|---------------------| 
-------0--0-----0--0----|-------------4--------4--|---------------------| 
----------2--------2----|--4-------4--4-----4--4--|------------------1--| 
------------------------|--6----------6--------6--|------------2--4-----| 
------------------------|-------------------------|---------------------| 
  
---------------------|---------------------|---------------------| 
---------------------|---------------------|---------------------| 
---------------------|---------------------|---------------------| 
--2--------1------2--|--------1------2--1--|--0---------------0--| 
---------------------|---------------------|-----------4---------| 
---------------------|---------------------|---------------------| 
 
  
----------------------|---------------------|------------------------| 
----------------------|---------------------|------------------------| 
----------------------|---------------------|------------------------| 
--------0-------0-----|---------------------|------------------------| 
-----------4-------4--|--3--------2------3--|--3------------0--2--3--| 
----------------------|---------------------|---------2--3-----------| 
 
  
---------------------|------------------|--0----------------| 
---------------------|------------------|--0----------------| 
---------------------|------------------|--0----------------| 
---------------------|------------------|-------------------| 
--2---------------2--|------------------|-------------------| 
-----------2---------|------------------|-------------------| 
  
-------------------------|------------------|-------------------------| 
-------------------------|------------------|-------------------------| 
----------0--2--0--------|------------------|-------------0-----------| 
----2--4-----------2--0--|------------------|----0--2--4-----2--0-----| 
       
  
 

	  

Solicitar el vídeo de "Entre dos aguas" - Descargar Entre dos aguas mp3

No existe una video leccione para esta canción

solicitar
140

Envie sus comentários.

1 comentários

russellt2russellt2
hace 7 meses atrás
It would help to have an arrangement and a chord chart for the three main sections of the song
 
LosAcordes
Buscar
auto avanzar rasgueos aumentar disminuir cambiar color esconder acordes gráficos
losacordes exhibir acordes losacordes youTube video losacordes ocultar tabs losacordes cambiar notación losacordes ir hacia arriba losacordes