A B C D E F G H I J K L M N O P Q R S T U V X Y Z 0-9
Paco de Lucía

Início > Paco de Lu... > acordes

Paco de Lucía

El vito

Dificultad:ExpertoExperto

por europeu

tuner corregir añadir para songbook version para impresion version de texto version rtf e-mail
acordestablaturabajobateríaarmónicaflautacavacopiano Guitar Pro
acordes

El vito

	  E||-----------------5--------|-----------------5--------| 
B||--------------6-----6-----|--------------6-----6-----| 
G||-----------5-----------5--|-----------5-----------5--| 
D||--------7-----------------|--------7-----------------| 
A||-----8--------------------|-----7--------------------| 
E||--5-----------------------|--5-----------------------| 
 
 
                                                      
-----------------4--------|--5------------7----7----| 
--------------5-----5-----|--5----------------------| 
-----------4-----------4--|--5----------------------| 
--------6-----------------|--7----------------------| 
-----7--------------------|--7----------------------| 
--4-----------------------|--5----------------------| 
 
 
                                                
--7--------------------|-----7--8--10--8--10--| 
-----10h-9-------------|--9-------------------| 
------------10h-7--10--|----------------------| 
-----------------------|----------------------| 
-----------------------|----------------------| 
--0--------------------|----------------------| 
 
 
                                                                  
--12h-10h-8------------|--------8----12----|--10h-8--7----10----| 
-------------8---------|-----8-------------|--------------------| 
----------------9------|--9----------------|--------------------| 
-------------------10--|-------------------|--------------------| 
--0--------------------|-------------------|--------------------| 
-----------------------|-------------------|--------------------| 
 
 
                                                             
--8-----------8----|--7h-5--4-----------|--------7----7----| 
--10----10---------|-----------5--------|-----5------------| 
--10---------------|--------------4-----|--4---------------| 
--10---------------|-----------------6--|------------------| 
-------------------|--------------------|------------------| 
-------------------|--0-----------------|------------------| 
 
 
                                                
--7--------------------|-----7--8--10--8--10--| 
-----10h-9-------------|--9-------------------| 
------------10h-7--10--|----------------------| 
-----------------------|----------------------| 
-----------------------|----------------------| 
--0--------------------|----------------------| 
 
 
                                                                  
--12h-10h-8------------|--------8----12----|--10h-8--7----10----| 
-------------8---------|-----8-------------|--------------------| 
----------------9------|--9----------------|--------------------| 
-------------------10--|-------------------|--------------------| 
--0--------------------|-------------------|--------------------| 
-----------------------|-------------------|--------------------| 
 
 
                                                               
--8-----------8----|--7h-5--4-----------|--------0-----------| 
--10----10---------|-----------5--------|-----5-----5--7--9--| 
--10---------------|--------------4-----|--4-----------------| 
--10---------------|-----------------6--|--------------------| 
-------------------|--------------------|--------------------| 
-------------------|--0-----------------|--------------------| 
 
 
                                                                
--5-----------------|--5--8--7h-5-----5--|--------------------| 
-----5-----------5--|--------------9-----|-----6-----6-----6--| 
--------5-----5-----|--------------------|--------------------| 
-----------7--------|--------------------|--------------5-----| 
--0-----------------|--------------------|--------5-----------| 
--------------------|--------------------|--7-----------------| 
 
 
                                                              
----------------0--|-----1-----1-----1--|----5--1h-0-----1--| 
-------0--1--3-----|--------------------|-------------3-----| 
----2--------------|--------------------|-------------------| 
-------------------|--------------0-----|-------------------| 
-------------------|--------2-----------|-------------------| 
-------------------|--3-----------------|-------------------| 
 
 
                                                           
-----0-----0-----0--|---------------3--|--5------5h-3----| 
--------------------|------3h-5--6-----|--4--------------| 
--------------0-----|------------------|--5--------------| 
--------2-----------|------------------|--3--------------| 
--3-----------------|------------------|-----------------| 
--------------------|------------------|-----------------| 
 
 
                                                            
--5--7--5h-4-----5--|--4----4----4----|-------8h-7--5-----| 
--------------6-----|-------5----5----|----------------8--| 
--------------------|-----------------|-------------------| 
--------------------|-----------------|-------------------| 
--------------------|-----------------|-------------------| 
--------------------|--0--------------|--0----------------| 
 
 
                                                         
-----------------|----4--5h-4-----5--|--4----4----4----| 
--6----6----6----|-------------6-----|-------5----5----| 
-------5----5----|-------------------|-----------------| 
-------7----7----|-------------------|-----------------| 
-----------------|-------------------|-----------------| 
-----------------|-------------------|-----------------| 
 
 
                                                           
------8h-7--5-----|-----------------|-----4--5h-4-----5--| 
---------------8--|--6----6----6----|--------------6-----| 
------------------|-------5----5----|--------------------| 
------------------|-------7----7----|--------------------| 
------------------|-----------------|--------------------| 
------------------|-----------------|--0-----------------| 
 
 
                                                         
--4----4----4----|-------4----4----|-------12----12----| 
-------5----5----|-------5----5----|-------------------| 
-------4----4----|-------4----4----|-------------------| 
-----------------|-----------------|-------------------| 
-----------------|-----------------|-------------------| 
--0--------------|--0--------------|--0----------------| 
 
 
                                                          
--12--------12----|--12--------10----|--10--------8-----| 
------------------|------------------|--12--------10----| 
------------------|------------------|------------9-----| 
------------------|------------------|--0---------10----| 
------------------|------------------|------------------| 
--0---------------|--0---------------|------------------| 
 
 
                                                                      
------7----8----|--12----7--------|--8----5--------|--4--------0----| 
------8---------|-----------------|--6-------------|--5--------5----| 
------7---------|-----------------|--5-------------|--4--------4----| 
------9---------|-----------------|--7-------------|--6--------6----| 
----------------|-----------------|----------------|----------------| 
----------------|-----------------|----------------|----------------| 
 
 
                                                          
------12----12----|--12--------12----|--12--------10----| 
------------------|------------------|------------------| 
------------------|------------------|------------------| 
------------------|------------------|------------------| 
------------------|------------------|------------------| 
------------------|--0---------------|--0---------------| 
 
 
                                                       
--10--------8-----|------7----8----|--12----7--------| 
--12--------10----|------8---------|-----------------| 
------------9-----|------7---------|-----------------| 
--0---------10----|------9---------|-----------------| 
------------------|----------------|-----------------| 
------------------|----------------|-----------------| 
 
 
                                                            
--8----5--------|--4--------0----|------4--------4--------| 
--6-------------|--5--------5----|---------5--------5-----| 
--5-------------|--4--------4----|------------4--------4--| 
--7-------------|--6--------6----|------------------------| 
----------------|----------------|------------------------| 
----------------|----------------|------------------------| 
 
 
                                                             
--7-----------------4--------|-----------5--------7--------| 
-----5-----------5-----5-----|--------6-----6--------6-----| 
--------4-----4-----------4--|-----5-----------5--------5--| 
-----------6-----------------|-----------------------------| 
-----------------------------|-----------------------------| 
-----------------------------|--0--------------------------| 
 
 
                                                             
--5-----------------4--------|-----------5--------7--------| 
-----6-----------5-----5-----|--------6-----6--------6-----| 
--------5-----4-----------4--|-----5-----------5--------5--| 
-----------6-----------------|-----------------------------| 
-----------------------------|-----------------------------| 
-----------------------------|--0--------------------------| 
 
 
                                                             
--8--------5--------5--------|--7--------------------------| 
-----6--------6--------6-----|-----8-----8--------8--------| 
--------5--------5--------5--|--------7-----7--------7-----| 
-----------------------------|--5--------------5--------5--| 
-----------------------------|-----------------------------| 
-----------------------------|-----------------------------| 
 
 
                                                             
-----------------------------|--------------------4--------| 
--6--------6--------5--------|-----------5-----------5-----| 
-----5--------5--------4-----|--4-----------4-----------4--| 
--------7--------7--------6--|-----6-----------6-----------| 
-----------------------------|--------7--------------------| 
-----------------------------|-----------------------------| 
 
 
                                                             
--7-----------------4--------|-----------5--------7--------| 
-----5-----------5-----5-----|--------6-----6--------6-----| 
--------4-----4-----------4--|-----5-----------5--------5--| 
-----------6-----------------|-----------------------------| 
-----------------------------|-----------------------------| 
-----------------------------|--0--------------------------| 
 
 
                                                             
--5-----------------4--------|-----------5--------7--------| 
-----6-----------5-----5-----|--------6-----6--------6-----| 
--------5-----4-----------4--|-----5-----------5--------5--| 
-----------6-----------------|-----------------------------| 
-----------------------------|-----------------------------| 
-----------------------------|--0--------------------------| 
 
 
                                                             
--8--------5--------5--------|--7--------------------------| 
-----6--------6--------6-----|-----8-----8--------8--------| 
--------5--------5--------5--|--------7-----7--------7-----| 
-----------------------------|--5--------------5--------5--| 
-----------------------------|-----------------------------| 
-----------------------------|-----------------------------| 
 
 
                                                                  
-------------------------|------8h-7--5-----|-------7h-5--------| 
--6--------6--------5----|---------------8--|--6----------8--6--| 
-----5--------5----------|------------------|-------------------| 
--------7--------7-------|------------------|-------------------| 
-------------------------|------------------|-------------------| 
-------------------------|------------------|-------------------| 
 
 
                                                           
-------5h-3--------|-----------------|-------8h-7--5-----| 
--5----------6--5--|--6----6----6----|--6-------------8--| 
-------------------|-----------------|-------------------| 
-------------------|-----------------|-------------------| 
-------------------|-----------------|-------------------| 
-------------------|-----------------|-------------------| 
 
 
                                                           
-------7h-5--------|-------------------|-----------------| 
--6----------8--6--|--5----6h-5--4--6--|--5----5----5----| 
-------------------|-------------------|-------4----4----| 
-------------------|-------------------|-------6----6----| 
-------------------|-------------------|-----------------| 
-------------------|-------------------|--0--------------| 
 
 
                                                         
-------4--------4--------|--7-----------------4--------| 
----------5--------5-----|-----5-----------5-----5-----| 
-------------4--------4--|--------4-----4-----------4--| 
-------------------------|-----------6-----------------| 
-------------------------|-----------------------------| 
--0----------------------|-----------------------------| 
 
 
                                                             
-----------5--------7--------|--5-----------------4--------| 
--------6-----6--------6-----|-----6-----------5-----5-----| 
-----5-----------5--------5--|--------5-----4-----------4--| 
-----------------------------|-----------6-----------------| 
-----------------------------|-----------------------------| 
--0--------------------------|-----------------------------| 
 
 
                                                             
-----------5--------7--------|--8--------5--------5--------| 
--------6-----6--------6-----|-----6--------6--------6-----| 
-----5-----------5--------5--|--------5--------5--------5--| 
-----------------------------|-----------------------------| 
-----------------------------|-----------------------------| 
--0--------------------------|-----------------------------| 
 
 
                                                             
--7--------------------------|-----------------------------| 
-----8-----8--------8--------|--6--------6--------5--------| 
--------7-----7--------7-----|-----5--------5--------4-----| 
--5--------------5--------5--|--------7--------7--------6--| 
-----------------------------|-----------------------------| 
 
-----------------------------|-----------------------------| 
 
 
                                                             
--------------------4--------|--7-----------------4--------| 
-----------5-----------5-----|-----5-----------5-----5-----| 
--4-----------4-----------4--|--------4-----4-----------4--| 
-----6-----------6-----------|-----------6-----------------| 
--------7--------------------|-----------------------------| 
-----------------------------|-----------------------------| 
 
 
                                                             
-----------5--------7--------|--5-----------------4--------| 
--------6-----6--------6-----|-----6-----------5-----5-----| 
-----5-----------5--------5--|--------5-----4-----------4--| 
-----------------------------|-----------6-----------------| 
-----------------------------|-----------------------------| 
--0--------------------------|-----------------------------| 
 
 
                                                             
-----------5--------7--------|--8--------5--------5--------| 
--------6-----6--------6-----|-----6--------6--------6-----| 
-----5-----------5--------5--|--------5--------5--------5--| 
-----------------------------|-----------------------------| 
-----------------------------|-----------------------------| 
--0--------------------------|-----------------------------| 
 
 
                                                         
--7--------------------------|-------------------------| 
-----8-----8--------8--------|--6--------6--------5----| 
--------7-----7--------7-----|-----5--------5----------| 
--5--------------5--------5--|--------7--------7-------| 
-----------------------------|-------------------------| 
-----------------------------|-------------------------| 
 
 
                                                                  
-------7----7----|--7--------------------|-----7--8--10--8--10--| 
-----------------|-----10h-9-------------|--9-------------------| 
-----------------|------------10h-7--10--|----------------------| 
-----------------|-----------------------|----------------------| 
-----------------|-----------------------|----------------------| 
--0--------------|--0--------------------|----------------------| 
 
 
                                                                  
--12h-10h-8------------|--------8----12----|--10h-8--7----10----| 
-------------8---------|-----8-------------|--------------------| 
----------------9------|--9----------------|--------------------| 
-------------------10--|-------------------|--------------------| 
--0--------------------|-------------------|--------------------| 
-----------------------|-------------------|--------------------| 
 
 
                                                             
--8-----------8----|--7h-5--4-----------|--------7----7----| 
--10----10---------|-----------5--------|-----5------------| 
--10---------------|--------------4-----|--4---------------| 
--10---------------|-----------------6--|------------------| 
-------------------|--------------------|------------------| 
-------------------|--0-----------------|------------------| 
 
 
                                                
--7--------------------|-----7--8--10--8--10--| 
-----10h-9-------------|--9-------------------| 
------------10h-7--10--|----------------------| 
-----------------------|----------------------| 
-----------------------|----------------------| 
--0--------------------|----------------------| 
 
 
                                                                  
--12h-10h-8------------|--------8----12----|--10h-8--7----10----| 
-------------8---------|-----8-------------|--------------------| 
----------------9------|--9----------------|--------------------| 
-------------------10--|-------------------|--------------------| 
--0--------------------|-------------------|--------------------| 
-----------------------|-------------------|--------------------| 
 
 
                                                               
--8-----------8----|--7h-5--4-----------|--------0-----------| 
--10----10---------|-----------5--------|-----5-----5--7--9--| 
--10---------------|--------------4-----|--4-----------------| 
--10---------------|-----------------6--|--------------------| 
-------------------|--------------------|--------------------| 
-------------------|--0-----------------|--------------------| 
 
 
                                                                
--5-----------------|--5--8--7h-5-----5--|--------------------| 
-----5-----------5--|--------------9-----|-----6-----6-----6--| 
--------5-----5-----|--------------------|--------------------| 
-----------7--------|--------------------|--------------5-----| 
--0-----------------|--------------------|--------5-----------| 
--------------------|--------------------|--7-----------------| 
 
 
                                                              
----------------0--|-----1-----1-----1--|----5--1h-0-----1--| 
-------0--1--3-----|--------------------|-------------3-----| 
----2--------------|--------------------|-------------------| 
-------------------|--------------0-----|-------------------| 
-------------------|--------2-----------|-------------------| 
-------------------|--3-----------------|-------------------| 
 
 
                                                           
-----0-----0-----0--|---------------3--|--5------5h-3----| 
--------------------|------3h-5--6-----|--4--------------| 
--------------0-----|------------------|--5--------------| 
--------2-----------|------------------|--3--------------| 
--3-----------------|------------------|-----------------| 
--------------------|------------------|-----------------| 
 
 
                                                                  
--5--7--5h-4-----5--|--4----4----4----|-------8h-7h-5-----------| 
--------------6-----|-------5----5----|----------------8h-6h-5--| 
--------------------|-----------------|-------------------------| 
--------------------|-----------------|-------------------------| 
--------------------|-----------------|-------------------------| 
--------------------|--0--------------|--0----------------------| 
 
 
                                                         
-----------------|----4--5h-4-----5--|--4----4----4----| 
--6----6----6----|-------------6-----|-------5----5----| 
-------5----5----|-------------------|-----------------| 
-------7----7----|-------------------|-----------------| 
-----------------|-------------------|-----------------| 
-----------------|-------------------|-----------------| 
 
 
                                                                  
-------8h-7h-5-----------|-----------------|-----4--5h-4-----5--| 
----------------8h-6h-5--|--6----6----6----|--------------6-----| 
-------------------------|-------5----5----|--------------------| 
-------------------------|-------7----7----|--------------------| 
-------------------------|-----------------|--------------------| 
--0----------------------|-----------------|--0-----------------| 
 
 
                                                         
--4----4----4----|-------4----4----|-------12----12----| 
-------5----5----|-------5----5----|-------------------| 
-------4----4----|-------4----4----|-------------------| 
-----------------|-----------------|-------------------| 
-----------------|-----------------|-------------------| 
--0--------------|--0--------------|--0----------------| 
 
 
                                                          
--12--------12----|--12--------10----|--10--------8-----| 
------------------|------------------|--12--------10----| 
------------------|------------------|------------9-----| 
------------------|------------------|------------10----| 
------------------|------------------|------------------| 
--0---------------|--0---------------|--10--------------| 
 
 
                                                                      
------7----8----|--12----7--------|--8----5--------|--4--------0----| 
------8---------|-----------------|--6-------------|--5--------5----| 
------7---------|-----------------|--5-------------|--4--------4----| 
------9---------|-----------------|--7-------------|--6--------6----| 
----------------|-----------------|----------------|----------------| 
----------------|-----------------|----------------|----------------| 
 
 
                                                          
------12----12----|--12--------12----|--12--------10----| 
------------------|------------------|------------------| 
------------------|------------------|------------------| 
------------------|------------------|------------------| 
------------------|------------------|------------------| 
------------------|--0---------------|--0---------------| 
 
 
                                                       
--10--------8-----|------7----8----|--12----7--------| 
--12--------10----|------8---------|-----------------| 
------------9-----|------7---------|-----------------| 
--0---------10----|------9---------|-----------------| 
------------------|----------------|-----------------| 
------------------|----------------|-----------------| 
 
 
                                                            
--8----5--------|--4--------0----|---------------4--------| 
--6-------------|--5--------5----|------5-----------5-----| 
--5-------------|--4--------4----|---------4-----------4--| 
--7-------------|--6--------6----|------------6-----------| 
----------------|----------------|------------------------| 
----------------|----------------|------------------------| 
 
 
                                                             
--7-----------------4--------|-----------5-----5--7--8--7--| 
-----5-----------5-----5-----|--------6-----9--------------| 
--------4-----4-----------4--|-----5-----------------------| 
-----------6-----------------|-----------------------------| 
-----------------------------|-----------------------------| 
--0--------------------------|--0--------------------------| 
 
 
                                                         
--5-----------------4--------|-------------------------| 
-----6-----------6-----5-----|----------------------5--| 
--------5-----5-----------4--|-------------4--5--7-----| 
-----------7-----------------|-------5--7--------------| 
-----------------------------|-------------------------| 
--5--------------------------|--0----------------------| 
 
 
                                                       
-----------------|--7---------7----|--5---------4----| 
--6---------6----|-------6---------|--4---------3----| 
-------7---------|-----------------|--5---------4----| 
-----------------|--5--------------|-----------------| 
-----------------|-----------------|-----------------| 
-----------------|-----------------|-------0---------| 
 
 
                                                        
---------------4--------|--7-----------------4--------| 
------5-----------5-----|-----5-----------5-----5-----| 
---------4-----------4--|--------4-----4-----------4--| 
------------6-----------|-----------6-----------------| 
------------------------|-----------------------------| 
------------------------|--0--------------------------| 
 
 
                                                             
-----------5-----5--7--8--7--|--5-----------------4--------| 
--------6-----9--------------|-----6-----------6-----5-----| 
-----5-----------------------|--------5-----5-----------4--| 
-----------------------------|-----------7-----------------| 
-----------------------------|-----------------------------| 
--0--------------------------|-----------------------------| 
 
 
                                                              
-------------------5--7--|--8----8----8----|--7--------7----| 
----------5--6--8--------|-----------------|--6-------------| 
-------7-----------------|-----------------|--7-------------| 
-------------------------|-----------------|--5-------------| 
-------------------------|-----------------|----------------| 
--0----------------------|-----------------|----------------| 
 
 
                                                          
--5--------4----|------8h-7--5-----|--------------------| 
--4--------3----|---------------8--|--6h-5--------------| 
--5--------4----|------------------|--------7h-5--4-----| 
----------------|------------------|-----------------7--| 
----------------|------------------|--------------------| 
----------------|------------------|--------------------| 
 
 
                                                                
--------------------|--------------------|--------------------| 
--------------------|--------1h-0--------|--------3h-1--------| 
--4h-2--0-----------|-----0--------2h-0--|-----2--------4h-2--| 
-----------3--2h-0--|--------------------|--------------------| 
--------------------|--3-----------------|--------------------| 
--------------------|--------------------|--1-----------------| 
 
 
                                                           
--------------------|--------7h-5--------|--0------------| 
--------5h-3--------|-----6--------8h-6--|--5------------| 
-----4--------5h-4--|--------------------|--4------------| 
--------------------|--0-----------------|--6------------| 
--------------------|--------------------|--7------------| 
--3-----------------|--------------------|--0------------| 
  
  
    
  

	  

Solicitar el vídeo de "El vito" - Descargar El vito mp3

No existe una video leccione para esta canción

solicitar
140

Envie sus comentários.

0 comentários

 
LosAcordes
Buscar
auto avanzar rasgueos aumentar disminuir cambiar color esconder acordes gráficos
losacordes exhibir acordes losacordes youTube video losacordes ocultar tabs losacordes cambiar notación losacordes ir hacia arriba losacordes