Our Last Night

Início > Our Last N... > acordes

Tear Her I Will Be Revenged Tablatura

Our Last Night

Dificultad:Ningún gradoNingún grado

por victborges

tuner correct add songbook print version text version salvar en e-mail
acordesukuleletablaturabajobateríaarmónicaflautacavacopiano Guitar Pro
acordes

Tear Her I Will Be Revenged

	  

Tuning: Standard E 

Intro (Clean): 

      W   S S S S S E   S S S S S E                                        x2 
e|--------------------------------------------------------------------------| 
B|o-------------------------------------------------------------------------| 
G|--------0---------0-----0-------0-----------------------------------------| 
D|----------4-----4-----4---4-0h4-------------------------------------------| 
A|o-----------2h5-----------------------------------------------------------| 
E|----0---------------------------------------------------------------------| 
   Let^the open E ring throughout the entire phrase. 

      E   S S S S S E   S S S S S S E   S S S S S E   S S S S S S    
e|--------------------------------------------------------------------------| 
B|------------3-------------3---------------3-------------3----------------o| 
G|--------0-----0-------0-----0---0-----0-----0-------0-----0---0-----------| 
D|----------4-----4-------4-----4---------4-----4-------4-----4-------------| 
A|----3-------------3---------------5-------------2------------------------o| 
E|--------------------------------------------------------------------------| 

(Bass Interlude) 

(Distorted): 

Lead Guitar on top, Rhythm Guitar on bottom 

    Hold for 2 bars 
e|--------------------------------------------------------------------------| 
B|--------------------------------------------------------------------------| 
G|--------------------------------------------------------------------------| 
D|--2-----------------------------------------------------------------------| 
A|--2-----------------------------------------------------------------------| 
E|--0-----------------------------------------------------------------------| 
 | 
 | 
 |  Hold for 2 bars 
e|--------------------------------------------------------------------------| 
B|--------------------------------------------------------------------------| 
G|--------------------------------------------------------------------------| 
D|--2-----------------------------------------------------------------------| 
A|--2-----------------------------------------------------------------------| 
E|--0-----------------------------------------------------------------------| 

    Hold for 6 and a quarter beats  S  S  S  S  S  S  S 
e|--------------------------------------------------------------------------| 
B|--------------------------------------------------------------------------| 
G|--4------------------------------11-11-11-11-11-11-11---------------------| 
D|--5-------------------------------X--X--X--X--X--X--X---------------------| 
A|----------------------------------9--9--9--9--9--9--9---------------------| 
E|--------------------------------------------------------------------------| 
 | 
 | 
 |  Same as Lead                    S  S  S  S  S  S  S 
e|--------------------------------------------------------------------------| 
B|--------------------------------------------------------------------------| 
G|----------------------------------7--7--7--7--7--7--7---------------------| 
D|--5-------------------------------7--7--7--7--7--7--7---------------------| 
A|--3-------------------------------5--5--5--5--5--5--5---------------------| 
E|--------------------------------------------------------------------------| 

              S  S  S  S  S S S S S S S           S  S  S  S  S S S S S S S 
e|--------------------------------------------------------------------------| 
B|o-------------------------------------------------------------------------| 
G|-----------12-12-11-12--7-7-7-7-7-7-7----------12-12-11-12--7-7-7-7-7-7-7-| 
D|------------X--X--X--X--X-X-X-X-X-X-X-----------X--X--X--X--X-X-X-X-X-X-X-| 
A|o----------10-10--9-10--5-5-5-5-5-5-5----------10-10--9-10--5-5-5-5-5-5-5-| 
E|--------------------------------------------------------------------------| 
 | 
 | 
 |  S S S E   S  S  S  S  E   S S S S S S S S E   S  S  S  S  E   S S S S S 
e|--------------------------------------------------------------------------| 
B|o-------------------------------------------------------------------------| 
G|--------------------------------------------------------------------------| 
D|--2-2-2-2---2--2--2--2--2---2-2-2-2-2-2-2-2-2---2--2--2--2--2---2-2-2-2-2-| 
A|o-2-2-2-2---2--2--2--2--2---2-2-2-2-2-2-2-2-2---2--2--2--2--2---2-2-2-2-2-| 
E|--0-0-0-0---0--0--0--0--0---0-0-0-0-0-0-0-0-0---0--0--0--0--0---0-0-0-0-0-| 

    S S S E   S  S  E   S S E   S  S  S  S  E   E   E   E   S S S S S S S 
e|--------------------------------------------------------------------------| 
B|-------------------------------------------------------------------------o| 
G|--5-5-5-5--16-16-16---5-5-5--16-16-16-14-14--12--11--12-------------------| 
D|--5-5-5-5---X--X--X---5-5-5---X--X--X--X--X---X---X---X---5-4-5-0-5-4-5---| 
A|--3-3-3-3--14-14-14---3-3-3--14-14-14-12-12--10---9--10------------------o| 
E|--------------------------------------------------------------------------| 
 | 
 | 
 |  S S S E   S S E     S S E   S S E    S  E   E   E   E   S S S S S S S 
e|--------------------------------------------------------------------------| 
B|-------------------------------------------------------------------------o| 
G|--5-5-5-5---5-5-5-----5-5-5---5-5-5----7--7---7---7---7---4-4-4-4-4-4-4---| 
D|--5-5-5-5---5-5-5-----5-5-5---5-5-5----7--7---7---7---7---4-4-4-4-4-4-4---| 
A|--3-3-3-3---3-3-3-----3-3-3---3-3-3----5--5---5---5---5---2-2-2-2-2-2-2--o| 
E|--------------------------------------------------------------------------| 

  Verse: 
  Lead Guitar can either rest or double with the rhythm part 
e|--------------------------------------------------------------------------| 
B|--------------------------------------------------------------------------| 
G|--------------------------------------------------------------------------| 
D|--------------------------------------------------------------------------| 
A|--------------------------------------------------------------------------| 
E|--------------------------------------------------------------------------| 
 | 
 | 
 |  S S S S S TT S S (x2) S S S S S TT S S   S S S S S S S S S S S S S S S S 
e|--------------------------------------------------------------------------| 
B|--------------------------------------------------------------------------| 
G|----------9------9--------------7------7----------------------------------| 
D|----------9------9--------------5------5----------------------------------| 
A|--7-7-7-7-7-77-7-7------3-3-3-3-3-33-3-3---3-3-3-3-3-3-3-3-3-5-5-5-5-5-5-5| 
E|--------------------------------------------------------------------------| 
    x x x x   xx x         x x x x   xx x    x x x x x x x x x x x x x x x x 

                       S S S S S S S                      S S S S S S S 
e|--------------------------------------------------------------------------| 
B|---------------------8-8-8-7-8-7-8----------------------------------------| 
G|---------------------7-7-7-7-7-7-7----------------------4-2-4-5-4-2-4-----| 
D|--------------------------------------------------------------------------| 
A|--------------------------------------------------------------------------| 
E|--------------------------------------------------------------------------| 
 | 
 | 
 |  S S S S S TT S E   S S S S S S S S S S S S TT S E     S S S S S S S 
e|--------------------------------------------------------------------------| 
B|--------------------------------------------------------------------------| 
G|----------9------9-------------------------9------9-----------------------| 
D|----------9------9---5-4-5-0-5-4-5---------9------9-----5-4-5-7-5-4-5-----| 
A|--7-7-7-7-7-77-7-7-----------------7-7-7-7-7-77-7-7-----------------------| 
E|--------------------------------------------------------------------------| 
    x x x x   xx x                   x x x x   xx x 
                                                        S S S S S S S 
e|--------------------------------------------------------------------------| 
B|--------------------------------------------------------------------------| 
G|------------------------------------------------------4-4-4-4-4-4p0-------| 
D|--------------------------------------------------------------------------| 
A|--------------------------------------------------------------------------| 
E|--------------------------------------------------------------------------| 
 |                                                      x x x x x x 
 | 
 |  S S S S S TT S E   S S S S S S TT S S S S S S S S S S S S S S S S 
e|--------------------------------------------------------------------------| 
B|--------------------------------------------------------------------------| 
G|----------7------7--------------------------------------------------------| 
D|----------5------5----------------------7---7-----7-----7-------7---------| 
A|--3-3-3-3-3-33-3-3---3-3-3-3-3-3-33-5-5-5-5-5-5-5-5-5-5-5-5-5-5-5-5-------| 
E|--------------------------------------------------------------------------| 
    x x x x   xx x     x x x x x x xx x x   x   x x   x x   x x x   x 

  Play this lead part on the second time through the rhythm part. 

    S S S S S TT S S S S S S S S S TT S S S S S TT S S S S S S S S S TT 
e|--------------------------------------------------------------------------| 
B|--------------------------------------------------------------------------| 
G|------4----------------4----------------4----------------4----------------| 
D|----------7------5---------7---5------------7------5---------7---5--------| 
A|------------------------------------3-3---3---33-3---3-3---3---3---33-----| 
E|--0-0---0---00-0---0-0---0---0---00---------------------------------------| 
 |  x x   x   xx x   x x   x   x   xx x x   x   xx x   x x   x   x   xx 
 | 
 |  S S S S S TT S S S S S S S S S TT S S S S S TT S S S S S S S S S TT    x2 
e|--------------------------------------------------------------------------| 
B|--------------------------------------------------------------------------| 
G|--------------------------------------------------------------------------| 
D|------5---4------------5---4------------5---4------------5---4------------| 
A|-----------------5-------------5----3-3---3---33-3-5-3-3---3---3-5-33-----| 
E|--0-0---0---00-0---0-0---0---0---00---------------------------------------| 
    x x   x   xx x   x x   x   x   xx x x   x   xx x   x x   x   x   xx 

 PREChorus: 

    S S S S S S S S S S S S S S S TT S S S S S S S S S S S S S S S 
e|--------------------------------------------------------------------------| 
B|--------------------------------------------------------------------------| 
G|--------------------------------------------------------------------------| 
D|-------------------------------------------------------------5h7----------| 
A|-----------------------------------------------------------5--------------| 
E|--3-3-3-3-3-3-3-3-3-3-3-3-3-3-3-33-2-2-2-2-2-2-2-2-2-2-2-2----------------| 
 |  x x x x x x x x x x x x x x x xx x x x x x x x x x x x x 
 | 
 |  W                                W 
e|--------------------------------------------------------------------------| 
B|--------------------------------------------------------------------------| 
G|--------------------------------------------------------------------------| 
D|--5--------------------------------4--------------------------------------| 
A|--5--------------------------------5--------------------------------------| 
E|--3--------------------------------2--------------------------------------| 

 Chorus: 
 This next part contains a pick-up note (note that starts before actual bar) 

   E    S E   S S S E   S E   E.  E   S E   S S S S S S S S S S S 
e|---|----------------------------------------------------------------------| 
B|---|----------------------------------------------------------------------| 
G|-2-|--2-2---2-2-2-2---2-2---4---5---5-5---5-5-5-5-5-5-5-5-5-5-5-----------| 
D|-2-|--2-2---2-2-2-2---2-2---5---5---5-5---5-5-5-5-5-5-5-5-5-5-5-----------| 
A|-0-|--0-0---0-0-0-0---0-0---2---3---3-3---3-3-3-3-3-3-3-3-3-3-3-----------| 
E|---|----------------------------------------------------------------------| 
  
   E    S E   S S S S S S S S S S S E   S E   S S S S S S S S S S S 
e|---|----------------------------------------------------------------------| 
B|---|----------------------------------------------------------------------| 
G|---|----------------------------------------------------------------------| 
D|-5-|--5-5---5-5-5-5-5-5-5-5-5-5-5-5---5-5---5-5-5-5-5-5-5-5-5-5-5---------| 
A|-5-|--5-5---5-5-5-5-5-5-5-5-5-5-5-4---4-4---4-4-4-4-4-4-4-4-4-4-4---------| 
E|-3-|--3-3---3-3-3-3-3-3-3-3-3-3-3-2---2-2---2-2-2-2-2-2-2-2-2-2-2---------| 

   Repeat the above rhythm part and add this lead part now. 
    E   S S S S S S S S S S S S S S E   S S S E.    E   S S S S S S 
e|--------------------------------------------------------------------------| 
B|----------------------------8-7-------------------------8-7---------------| 
G|--7---7-7-7-7-------7-7-7-7-----------------------------------------------| 
D|--------------9-7-9-------------9-9---9-7-9-7-----9---9-----9-9-9---------| 
A|--------------------------------------------------------------------------| 
E|--------------------------------------------------------------------------| 

   E    S S S S E   E   S S S S E   S S S S S S S S S S S S E. 
e|---|----------------------------------------------------------------------| 
B|---|----------------------------------------------------------------------| 
G|-7-|--7-4---------7---7-4---------4-0-5-0-7-0-5-0-4-0-4-5-4---------------| 
D|---|------7-5-7-----------7-5-7-------------------------------------------| 
A|---|----------------------------------------------------------------------| 
E|---|----------------------------------------------------------------------| 

 Bridge: 
  
   S   E.  S         S E.  S         S E.  S       S E.  S S S S S 
e|---|----------------------------------------------------------------------| 
B|-X-|-8---8---------X-7---7---------X-8---8-------X-7---7-7-7-7-7----------| 
G|-X-|-7---7---------X-7---7---------X-7---7-------X-7---7-7-7-7-7----------| 
D|-X-|-X---X---------X-X---X---------X-X---X-------X-X---X-X-X-X-X----------| 
A|-X-|-7---7---------X-7---7---------X-7---7-------X-7---7-7-7-7-7----------| 
E|---|----------------------------------------------------------------------| 
       ^For these, I mute the D string with my index finger. 

   E   S E   S S S E   S E   S S S (x2) 
e|---|----------------------------------------------------------------------| 
B|-8-|-8-8---8-8-8-7---7-7---7-7-7------------------------------------------| 
G|-7-|-7-7---7-7-7-7---7-7---7-7-7------------------------------------------| 
D|-X-|-X-X---X-X-X-X---X-X---X-X-X------------------------------------------| 
A|-7-|-7-7---7-7-7-7---7-7---7-7-7------------------------------------------| 
E|---|----------------------------------------------------------------------| 
             x x x           x x x  

 Back to Lead Guitar on top, Rhythm Guitar on bottom. 
 This entire next part is repeated once. 

   E   S E   S S S E   S E   S S S (x2) E   S E   S S S E   S E   S S S (x2) 
e|---|----------------------------------------------------------------------| 
B|---|----------------------------------------------------------------------| 
G|-9-|-9-9---9-9-9-7---7-7---7-7-7------7---7-7---7-7-7-7---7-7---7-7-7-----| 
D|-X-|-X-X---X-X-X-X---X-X---X-X-X------5---5-5---5-5-5-5---5-5---5-5-5-----| 
A|-7-|-7-7---7-7-7-5---5-5---5-5-5------3---3-3---3-3-3-3---3-3---3-3-3-----| 
E|---|----------------------------------------------------------------------| 
 |           x x x           x x x                x x x           x x x 
 | 
 | E   S E   S S S E   S E   S S S (x4) 
e|---|----------------------------------------------------------------------| 
B|-8-|-8-8---8-8-8-7---7-7---7-7-7------------------------------------------| 
G|-7-|-7-7---7-7-7-7---7-7---7-7-7------------------------------------------| 
D|-X-|-X-X---X-X-X-X---X-X---X-X-X------------------------------------------| 
A|-7-|-7-7---7-7-7-7---7-7---7-7-7------------------------------------------| 
E|---|----------------------------------------------------------------------| 
             x x x           x x x  
  
 (PREChorus) 
 (Chorus) 

 Bridge 2: 

    S S S S S S S E   TT S S S S TT S S S S S S S S E  TT S S S S E 
e|--------------------------------------------------------------------------| 
B|--------------------------------------------------------------------------| 
G|--------------------------------------------------------------------------| 
D|----------5----------------4----------------5---------------4-------------| 
A|----------------------------------------------------------------2---------| 
E|--0-0-0-0---0-0-0---00-0-0---0-00-0-0-0-0-0---0-0-0--00-0-0---0-----------| 
    x x x x   x x x   xx x x   x xx x x x x x   x x x  xx x x   x  

    S S S S S TT S S S S S S S S S TT S S S S S S S S S S S S S S S S 
e|--------------------------------------------------------------------------| 
B|--------------------------------------------------------------------------| 
G|--7-7-7-7-7-77-7-7-7-7-7-7-7-7-7-77-7-7-7-7-7-7-7-7-4-4-4-4-4-4-4-4-------| 
D|--5-5-5-5-5-55-5-5-5-5-5-5-5-5-5-55-7-7-7-7-7-7-7-7-4-4-4-4-4-4-4-4-------| 
A|--3-3-3-3-3-33-3-3-3-3-3-3-3-3-3-33-5-5-5-5-5-5-5-5-2-2-2-2-2-2-2-2-------| 
E|--------------------------------------------------------------------------| 
    x x   x   xx x   x x   x x x   xx x x   x   x x   x x   x   x x   

    S S S S S S S S                   S S S S S S S S 
e|--------------------------------------------------------------------------| 
B|--------------------------------------------------------------------------| 
G|--9-9-9-9-9-9-9-9-------------------9-9-9-9-9-9-9-9-----------------------| 
D|--X-X-X-X-X-X-X-X-------------------X-X-X-X-X-X-X-X-----------------------| 
A|--7-7-7-7-7-7-7-7-------------------7-7-7-7-7-7-7-7-----------------------| 
E|--------------------------------------------------------------------------| 
 | 
 | 
 |  S S S S S S S E   TT S S S S TT S S S S S S S S E  TT S S S S E 
e|--------------------------------------------------------------------------| 
B|--------------------------------------------------------------------------| 
G|--------------------------------------------------------------------------| 
D|----------5----------------4----------------5---------------4-------------| 
A|----------------------------------------------------------------2---------| 
E|--0-0-0-0---0-0-0---00-0-0---0-00-0-0-0-0-0---0-0-0--00-0-0---0-----------| 
    x x x x   x x x   xx x x   x xx x x x x x   x x x  xx x x   x  

                                                     (SLOWLY) 
    S S S S S TT S S S S S S S S S TT S S S S S S S S S S S S S S S S 
e|--------------------------------------------------------------------------| 
B|--------------------------------------------------------------------------| 
G|--7-7-7-7-7-77-7-7-7-7-7-7-7-7-7-77-7-7-7-7-7-7-7-7-4-4-4-4-4-4-4-4-------| 
D|--5-5-5-5-5-55-5-5-5-5-5-5-5-5-5-55-7-7-7-7-7-7-7-7-4-4-4-4-4-4-4-4-------| 
A|--3-3-3-3-3-33-3-3-3-3-3-3-3-3-3-33-5-5-5-5-5-5-5-5-2-2-2-2-2-2-2-2-------| 
E|--------------------------------------------------------------------------| 
    x x   x   xx x   x x   x x x   xx x x   x   x x   x x x x x x x   

  BREAKDOWN (x2): 
  Slower Tempo 
    S S         S S     E E E   S S         S S     E   S S E 
e|--------------------------------------------------------------------------| 
B|--------------------------------------------------------------------------| 
G|----------------------4-2-------------------------4---2-4-5---------------| 
D|--2-2---------2-2---------4---2-2---------2-2-----------------------------| 
A|--2-2---------2-2-------------2-2---------2-2-----------------------------| 
E|--0-0---------0-0-------------0-0---------0-0-----------------------------| 
 | 
 | 
 |  S S         S S     E E E   S S         S S     E   S S E 
e|--------------------------------------------------------------------------| 
B|--------------------------------------------------------------------------| 
G|--------------------------------------------------------------------------| 
D|--2-2---------2-2-----5-4-----2-2---------2-2-----5---4-5-7---------------| 
A|--2-2---------2-2---------5---2-2---------2-2-----------------------------| 
E|--0-0---------0-0-------------0-0---------0-0-----------------------------| 


    S S         S S             E   S S         S S         S  S  S  S 
e|--------------------------------------------------------------------------| 
B|--------------------------------------------------------------------------| 
G|--5-5---------5-5------------(5)--5-5---------5-5--------11-11-11-11------| 
D|--5-5---------5-5-----------------5-5---------5-5---------X--X--X--X------| 
A|--3-3---------3-3-----------------3-3---------3-3---------9--9--9--9------| 
E|--------------------------------------------------------------------------| 
 | 
 | 
 |  S S         S S             E   S S         S S         S  S  S  S 
e|--------------------------------------------------------------------------| 
B|--------------------------------------------------------------------------| 
G|--5-5---------5-5-------------0---5-5---------5-5---------7--7--7--7------| 
D|--5-5---------5-5-----------------5-5---------5-5---------7--7--7--7------| 
A|--3-3---------3-3-----------------3-3---------3-3---------5--5--5--5------| 
E|--------------------------------------------------------------------------| 

                     E   S S S S E   S S E 
e|--------------------------------------------------------------------------| 
B|--------------------------------------------------------------------------| 
G|--4----------------X---X-X-X-X-X---X-X-X----------------------------------| 
D|--4----------------X---X-X-X-X-X---X-X-X----------------------------------| 
A|--2----------------X---X-X-X-X-X---X-X-X----------------------------------| 
E|--------------------------------------------------------------------------| 
 |                       x x x x x   x x 
 | 
 |                   E   S S S S E   S S E 
e|--------------------------------------------------------------------------| 
B|--------------------------------------------------------------------------| 
G|-------------------X---X-X-X-X-X---X-X-X----------------------------------| 
D|-------------------X---X-X-X-X-X---X-X-X----------------------------------| 
A|-------------------X---X-X-X-X-X---X-X-X----------------------------------| 
E|--0-----------------------------------------------------------------------| 
                         x x x x x   x x 
  

 Solo: 
 NEW TIME SIGNATURE - 6/8 time (triplet feel) 

 (I will continue writing in cut time) 
    
    E  S S S S  E  S S S S E  S S S S  E  S S S S 
e|--------------------------------------------------------------------------| 
B|-----8p7-8p7-10--8p7-8p7----8p7-8p7-10--8p7-8p7---------------------------| 
G|--9----------------------9------------------------------------------------| 
D|--------------------------------------------------------------------------| 
A|--------------------------------------------------------------------------| 
E|--------------------------------------------------------------------------| 
 | 
 | 
 |  E  S S S S  E  S S S S E  S S S S  E  S S S S 
e|--------------------------------------------------------------------------| 
B|--------------------------------------------------------------------------| 
G|--------------------------------------------------------------------------| 
D|--2--2-2-2-2--2--2-2-2-2-2--2-2-2-2--2--2-2-2-2---------------------------| 
A|--2--2-2-2-2--2--2-2-2-2-2--2-2-2-2--2--2-2-2-2---------------------------| 
E|--0--0-0-0-0--0--0-0-0-0-0--0-0-0-0--0--0-0-0-0---------------------------| 

    E  S S S S E  S S S S E  S S S S S  S  S  S  S  S 
e|-----7p5-7p5-8--7p5-7p5----7p5-7p5-8/10-10-10-10-10-----------------------| 
B|--8---------------------8-------------------------------------------------| 
G|--------------------------------------------------------------------------| 
D|--------------------------------------------------------------------------| 
A|--------------------------------------------------------------------------| 
E|--------------------------------------------------------------------------| 
 | 
 | 
 |  E  S S S S E  S S S S E  S S S S E     S  S  S  S 
e|--------------------------------------------------------------------------| 
B|--------------------------------------------------------------------------| 
G|--5--5-5-5-5-5--5-5-5-5-5--5-5-5-5-5-----5--5--5--5-----------------------| 
D|--5--5-5-5-5-5--5-5-5-5-5--5-5-5-5-5-----5--5--5--5-----------------------| 
A|--3--3-3-3-3-3--3-3-3-3-3--3-3-3-3-3-----3--3--3--3-----------------------| 
E|--------------------------------------------------------------------------| 
   
    E  S S S S  E  S S S S E  S S S S  E  S S S S 
e|--------------------------------------------------------------------------| 
B|-----8-7-8-7-10--8-7-8-7----8-7-8-7-10--8-7-8-7---------------------------| 
G|--9----------------------9------------------------------------------------| 
D|--------------------------------------------------------------------------| 
A|--------------------------------------------------------------------------| 
E|--------------------------------------------------------------------------| 
 | 
 | 
 |  E  S S S S  E  S S S S E  S S S S  E  S S S S 
e|--------------------------------------------------------------------------| 
B|--------------------------------------------------------------------------| 
G|--------------------------------------------------------------------------| 
D|--2--2-2-2-2--2--2-2-2-2-2--2-2-2-2--2--2-2-2-2---------------------------| 
A|--2--2-2-2-2--2--2-2-2-2-2--2-2-2-2--2--2-2-2-2---------------------------| 
E|--0--0-0-0-0--0--0-0-0-0-0--0-0-0-0--0--0-0-0-0---------------------------| 

    S S S S S S S S S S S S S S S S S S S  S S  S S  S 
e|--5h7-5h7-5h7-5h7-5h7-5h7-7h8-7h8-7h8-8h10-8h10-8h10----------------------| 
B|--------------------------------------------------------------------------| 
G|--------------------------------------------------------------------------| 
D|--------------------------------------------------------------------------| 
A|--------------------------------------------------------------------------| 
E|--------------------------------------------------------------------------| 
 | 
 | 
 |  E   S S S S E   S S S S E   S S S S E    S  S S  S 
e|--------------------------------------------------------------------------| 
B|--------------------------------------------------------------------------| 
G|--5---5-5-5-5-5---5-5-5-5-5---5-5-5-5-5----7--7-7--7----------------------| 
D|--5---5-5-5-5-5---5-5-5-5-5---5-5-5-5-5----7--7-7--7----------------------| 
A|--3---3-3-3-3-3---3-3-3-3-3---3-3-3-3-3----5--5-7--5----------------------| 
E|--------------------------------------------------------------------------| 

     S S  S S  S S  S S  S S  S S S S S S S S S S S S S S 
e|--12p0-12p0-12p0-10p0-10p0-10p0-8p0-8p0-8p0-7p0-8p0-7p0-------------------| 
B|--------------------------------------------------------------------------| 
G|--------------------------------------------------------------------------| 
D|--------------------------------------------------------------------------| 
A|--------------------------------------------------------------------------| 
E|--------------------------------------------------------------------------| 
 | 
 | 
 |  E  S S S S  E  S S S S E  S S S S  E  S S S S 
e|--------------------------------------------------------------------------| 
B|--------------------------------------------------------------------------| 
G|--------------------------------------------------------------------------| 
D|--2--2-2-2-2--2--2-2-2-2-2--2-2-2-2--2--2-2-2-2---------------------------| 
A|--2--2-2-2-2--2--2-2-2-2-2--2-2-2-2--2--2-2-2-2---------------------------| 
E|--0--0-0-0-0--0--0-0-0-0-0--0-0-0-0--0--0-0-0-0---------------------------| 


     S S  S S  S S  S S  S S  S S S S  S S S S S S S S S S 
e|--12p0-12p0-12p0-10p0-10p0-10p0-8p0-10p0-8p0-7p0-8p0-7p0------------------| 
B|--------------------------------------------------------------------------| 
G|--------------------------------------------------------------------------| 
D|--------------------------------------------------------------------------| 
A|--------------------------------------------------------------------------| 
E|--------------------------------------------------------------------------| 
 | 
 | 
 |  E  S S S S E  S S S S E  S S S S E             S S S S 
e|--------------------------------------------------------------------------| 
B|--------------------------------------------------------------------------| 
G|--5--5-5-5-5-5--5-5-5-5-5--5-5-5-5-5-------------5-5-5-5------------------| 
D|--5--5-5-5-5-5--5-5-5-5-5--5-5-5-5-5-------------5-5-5-5------------------| 
A|--3--3-3-3-3-3--3-3-3-3-3--3-3-3-3-3-------------3-3-3-3------------------| 
E|--------------------------------------------------------------------------| 

    S S S  S S S  S S S  S S S S S S  S S S  S S S  S S S 
e|---------------10-8-7---------------------10-8-7--------------------------| 
B|----8-7-10-8-7--------10-8-7---8-7-10-8-7--------10-8-7-------------------| 
G|--9--------------------------9--------------------------------------------| 
D|--------------------------------------------------------------------------| 
A|--------------------------------------------------------------------------| 
E|--------------------------------------------------------------------------| 
 | 
 | 
 |  E  S S S S E  S S S S E  S S S S E  S S S S 
e|--------------------------------------------------------------------------| 
B|--------------------------------------------------------------------------| 
G|--------------------------------------------------------------------------| 
D|--2--2-2-2-2-2--2-2-2-2-2--2-2-2-2-2--2-2-2-2-----------------------------| 
A|--2--2-2-2-2-2--2-2-2-2-2--2-2-2-2-2--2-2-2-2-----------------------------| 
E|--0--0-0-0-0-0--0-0-0-0-0--0-0-0-0-0--0-0-0-0-----------------------------| 


    E           E   E   E   E   E   E   E   E   E 
e|--------------------------8---7-------------------------------------------| 
B|--8-----------7---8--10-----------8---7---8---7---------------------------| 
G|--------------------------------------------------------------------------| 
D|--------------------------------------------------------------------------| 
A|--------------------------------------------------------------------------| 
E|--------------------------------------------------------------------------| 
 | 
 | 
 |  E   S S S S E   S S S S E   S S S S E   S S S S 
e|--------------------------------------------------------------------------| 
B|--------------------------------------------------------------------------| 
G|--5---5-5-5-5-5---5-5-5-5-5---5-5-5-5-5---7-7-7-7-------------------------| 
D|--5---5-5-5-5-5---5-5-5-5-5---5-5-5-5-5---7-7-7-7-------------------------| 
A|--3---3-3-3-3-3---3-3-3-3-3---3-3-3-3-3---5-5-5-5-------------------------| 
E|--------------------------------------------------------------------------| 

  Fade out... 
e|--------------------------------------------------------------------------| 
B|--8~----------------------------------------------------------------------| 
G|--------------------------------------------------------------------------| 
D|--------------------------------------------------------------------------| 
A|--------------------------------------------------------------------------| 
E|--------------------------------------------------------------------------| 
 | 
 | 
 |   
e|--------------------------------------------------------------------------| 
B|--------------------------------------------------------------------------| 
G|--------------------------------------------------------------------------| 
D|--2-----------------------------------------------------------------------| 
A|--2-----------------------------------------------------------------------| 
E|--0-----------------------------------------------------------------------| 

 Thank you for viewing this tab! This took a several hours to make.  Please 
take a moment to leave a comment or rate it for me.  Thanks! :) 

~Tap Master 

************************************ 

| /   slide up 
| \   slide down 
| h   hammer-on 
| p   pull-off 
| ~   vibrato 
|(#)  harmonic 
| X   mute note 
| x   Palm mute 
| b   Bend 
| pb  Pre-bend 
| br  Bend release 
| pbr Pre-bend release 
| brb Bend release bend 
| W   Whole Note 
| H   Half Note 
| Q   Quarter Note 
| E   Eighth Note 
| S   Sixteenth Note 
| T   Thirty-second Note 
| .   Dotted Note 
************************************ 
	  

No existe una video leccione para esta canción

request
LosAcordes
Buscar
auto avanzar rasgueos aumentar disminuir cambiar color esconder acordes gráficos
losacordes exhibir acordes losacordes youTube video losacordes ocultar tabs losacordes ir hacia arriba losacordes