Our Last Night

Início > Our Last N... > acordes

Habits Stay High Tablatura

Our Last Night

Dificultad:Ningún gradoNingún grado

por jov-correa

tuner correct add songbook print version text version salvar en e-mail
acordesukuleletablaturabajobateríaarmónicaflautacavacopiano Guitar Pro
acordes

Habits Stay High

	  



(Intro)/(verse 1) 
e|-----------------------------------------------------| 
B|-----------------------------------------------------| 
G|--10-10-10-10-10-10-10-10-10-10-10-10----------------| 
D|-----------------------------------------------------|  x20  
A|-----------------------------------------------------| 
E|-----------------------------------------------------|     I gotta stay... 


(Chorus) High, all the time... 
e|---------------------------------------------------------------------------| 
B|---------------------------------------------------------------------------| 
G|-----7----7----7----7----7--9--10---10---10---10---10-10-------------------| 
D|-----7----7----7----7----7--9--10---10---10---10---10-10-------------------| 
A|-----5----5----5----5----5--7--8----8----8----8----8--8--------------------| 
E|---------------------------------------------------------------------------| 

(you can either continue that power chord or slide up to)___________________ 
                                                                            \ 
e|-----------------------------------------------------------            ----------------|                     
B|-----------------------------------------------------------            ----------------| 
G|-----10---10---10---10---10-10-10---10---10---10---10-10---    OR      ------14--------| 
D|-----10---10---10---10---10-10-10---10---10---10---10-10---   Slide    ------12--------|  
A|-----8----8----8----8----8--8--8----8----8----8----8--8----    Up      ------12--------| 
E|-----------------------------------------------------------            ----------------| 

x2 

...spend my days... 
e|-----------------------------------------------------------------------------------------------| 
B|-----------------------------------------------------------------------------------------------| 
G|----15--15--15--15--15-15-14--14--14--14--14-14--10--10--10--10--10-10-10--10--10--10--10-10---| 
D|----15--15--15--15--15-15-12--12--12--12--12-12--10--10--10--10--10-10-10--10--10--10--10-10---| 
A|----13--13--13--13--13-13-12--12--12--12--12-12--8---8---8---8---8--8--8---8---8---8---8--8----| 
E|-----------------------------------------------------------------------------------------------| 

e|---------------------------------------------------------------------------| 
B|---------------------------------------------------------------------------| 
G|-----7----7----7----7----7--9--10---10---10---10---10-10-------------------| 
D|-----7----7----7----7----7--9--10---10---10---10---10-10-------------------| 
A|-----5----5----5----5----5--7--8----8----8----8----8--8--------------------| 
E|---------------------------------------------------------------------------| 

(you can either continue that power chord or slide up to)___________________ 
                                                                            \ 
e|-----------------------------------------------------------            ----------------|                     
B|-----------------------------------------------------------            ----------------| 
G|-----10---10---10---10---10-10-10---10---10---10---10-10---    OR      ------14--------| 
D|-----10---10---10---10---10-10-10---10---10---10---10-10---   Slide    ------12--------|  
A|-----8----8----8----8----8--8--8----8----8----8----8--8----    Up      ------12--------| 
E|-----------------------------------------------------------            ----------------| 


(verse 2) ...pick up mommies at the playground... 

(pull offs) 
e|-------------------------------13----------|   
B|---15-13-10-15-13-10-15-13-10----15-13-10--| 

e|-------------------------------13----------| 
B|---15-13-10-15-13-10-15-13-10----15-13-10--| 

e|-------------------------------13----------| 
B|---15-13-10-15-13-10-15-13-10----15-13-10--| 

e|----------------------------------13--15---| 
B|---15-13-10-15-13-10-15-13-10--15----------| 

e|-------------------------------13----------| 
B|---15-13-10-15-13-10-15-13-10----15-13-10--| 

e|-------------------------------13----------| 
B|---15-13-10-15-13-10-15-13-10----15-13-10--| 

e|-----------------------------------13--15--17----| 
B|---15-13-10-15-13-10-15-13-10---15---------------| 


---(Chorus)--- ...High all the time...spend my days...High all my life... 


(Bridge)...staying in my play pretend...  

e|---------8---------8---------8---------8--------------8---------8---------8------| 
B|---10--10----10--10----10--10----10--10---------10--10----10--10----10--10-------| 
G|-----10--------9---------10--------10-------------10--------9---------10---------| 
D|---------------------------------------------------------------------------------| 
A|---------------------------------------------------------------------------------| 
E|---------------------------------------------------------------------------------| 

e|-----------8-----------------8-----------------8-----------------8---------------| 
B|-------10----10--10------10----10--10------10----10--10------10----10--10--------| 
G|-----10--10----10------12--12----12------10--10----10------9----9-----9----------| 
D|---------------------------------------------------------------------------------| 
A|---------------------------------------------------------------------------------| 
E|---------------------------------------------------------------------------------| 
  
                                                                           ...High all the...  
e|-----------8-----------------8----------------8-------------8-----------|---8-------| 
B|-------10----10--10------10----10--10---------10------------10----------|---10------| 
G|-----10--10----10------12--12----12-----------10------------9-----------|---10------| 
D|------------------------------------------------------------------------|-----------| 
A|------------------------------------------------------------------------|-----------| 
E|------------------------------------------------------------------------|-----------| 

...time... (power chords) 
----(Chorus)----- 


(Outro) 
e|-------------------------------------------| 
B|---------------8---------------------------| 
G|-----7---7-7---7---7-7-7---10--7-----------| 
D|-----7---7-7---5---7-7-7---10--7-----------| 
A|-----5---5-5---5---5-5-5---8---5-----------| 
E|-------------------------------------------| 


************************************ 

| /   slide up 
| \   slide down 
| h   hammer-on 
| p   pull-off 
| ~   vibrato 
| +   harmonic 
| x   Mute note 
| b   Bend 
| pb  Pre-bend 
| br  Bend release 
| pbr Pre-bend release 
| brb Bend release bend 

************************************ 
	  

No existe una video leccione para esta canción

request
LosAcordes
Buscar
auto avanzar rasgueos aumentar disminuir cambiar color esconder acordes gráficos
losacordes exhibir acordes losacordes youTube video losacordes ocultar tabs losacordes ir hacia arriba losacordes