Ornatos Violeta

Início > Ornatos Vi... > acordes

Chaga Tablatura

Ornatos Violeta

Dificultad:Ningún gradoNingún grado

por andrsouza

tuner correct add songbook print version text version salvar en e-mail
acordesukuleletablaturabajobateríaarmónicaflautacavacopiano Guitar Pro
acordes

Chaga

	  Introdução: Riff 1 (3x) 
Estrofe: Riff 2 (2x) 
Refrão: Riff 1 (1x) 
Estrofe: Riff 2 (2x) 
Refrão: Riff 1 (2x) 
Solo: Riff 1 (1x) --> Começa quase no final do solo de violino 
Refrão: Riff 1 (2x) 
Final: Riff 3 (2x) 


Riff 1 (parte 1) 

 
E|-----------------------------------------------------------------| 
B|-----------------------------------------------------------------| 
G|-----------------------------------------------------------------| 
D|-5-5-4-4-5-5-7-7-5-5-4-4-5-5-7-7-5-5-4-4-5-5-7-7-5-5-4-4-5-5-7-7-| 
A|-7-7-7-7-7-7-7-7-7-7-7-7-7-7-7-7-6-6-6-6-6-6-6-6-6-6-6-6-6-6-6-6-| 
E|-----------------------------------------------------------------| 
 

Riff 1 (parte 2) 

 
E|-------------------------------------------------------------------| 
B|-------------------------------------------------------------------| 
G|-------------------------------------------------------------------| 
D|-5-5-4-4-5-5-7-7-5-5-4-4-5-5-7-7-5-5-5-5-5-5-5-5-5-5-5-4-4-4-------| 
A|-5-5-5-5-5-5-5-5-5-5-5-5-5-5-5-5-4-4-4-4-4-4-4-4-3-3-3-2-2-2-------| 
E|-------------------------------------------------------------------| 
 

Riff 2 

 
E|-----------------------------------------------| 
B|-----------------------------------------------| 
G|-----------------------------------------------| 
D|-5-5---5-5---5-5---5-5-5-5-5-5-5-5-5-5-5-4-4-4-| 
A|-7-7---6-6---5-5---4-4-4-4-4-4-4-4-3-3-3-2-2-2-| 
E|-----------------------------------------------| 
 

Riff 3 

 
E|---------------------------------------------------------------------| 
B|---------------------------------------------------------------------| 
G|---------------------------------------------------------------------| 
D|-5-5-5-5-5-5-5-5-5-5-5-5-5-5-5-5-5-5-5-5-5-5-5-5-5-5-5-5-5-5-5-4-4-4-| 
A|-7-7-7-7-7-7-7-7-6-6-6-6-6-6-6-6-5-5-5-5-4-4-4-4-4-4-4-4-3-3-3-2-2-2-| 
E|---------------------------------------------------------------------| 
	  

No existe una video leccione para esta canción

request
LosAcordes
Buscar
auto avanzar rasgueos aumentar disminuir cambiar color esconder acordes gráficos
losacordes exhibir acordes losacordes youTube video losacordes ocultar tabs losacordes ir hacia arriba losacordes