Oficina G3

Início > Oficina G3 > acordes

Novos céus (solo) Tablatura

Oficina G3

Dificultad:PrincipiantePrincipiante

por Mauricio_19

tuner correct add songbook print version text version salvar en e-mail
acordesukuleletablaturabaixobateríaarmónicaflautacavacopiano Guitar Pro
acordes

Novos céus (solo)

	   
INTRO: 
 
E|-2-4--2h4-2-2-4--5-4------------------------| 
B|-5-5--5-5-5-5-5--5-5---7-7-5-4-5-5-4--------| 
G|--------------------------------------------| 
D|--------------------------------------------| 
A|---------------------4----------------------| 
E|--------------------------------------------| 
 
E|------0--------3-2--3-2--| 
B|-2-2-0-3-2-0---3-3--3-3--| 
G|-2-----------------------| 
D|-2-----------------------| 
A|-------------------------| 
E|-------------------------| 
 
 
 
 
__________________________________________________________ 
Colaboração: Mauricio J. Frigo - mauriciofrigo@hotmail.com 
 

	  

No existe una video leccione para esta canción

request
LosAcordes
Buscar
auto avanzar rasgueos aumentar disminuir cambiar color esconder acordes gráficos
losacordes exhibir acordes losacordes youTube video losacordes ocultar tabs losacordes ir hacia arriba losacordes