A B C D E F G H I J K L M N O P Q R S T U V X Y Z 0-9
Nirvana

Início > Nirvana > acordes

Nirvana

The Man Who Sold The World

Dificultad:AdelantadoAdelantado

tuner corregir añadir para songbook version para impresion version de texto version rtf e-mail
acordestablaturabaixobateriaarmónicaflautacavacopiano Guitar Pro
acordes

The Man Who Sold The World

Áño: 1994 - Álbum: Nirvana

(David Bowie)

	   
Versão 1: 
 
Afinação: 
 
D# G# C# F# A# D# 
 
  
Intro (with distortion);  
Repita 4x                          repita 2x     Pra finalizar a sexta vez 
E|--------------------| E|--------------------|             |-----|             
B|--------------------| B|--------------------|             |-----| 
G|--2-2-2-0--2h3p2-0--| G|--2-2-2-0--2h3p2-0--|             |--2--| deixe soar 
D|--------------------| D|--3-3-3-3--3-3-3-3--|             |--3--| 
A|--------------------| A|--------------------|             |-----| 
E|--------------------| E|--------------------|             |-----| 
 
                    A5 
We passed upon the stairs, 
                    D5 
We spoke of was and when 
                  A5 
Although I wasn't there 
                  F5 
He said I was his friend 
                    C5 
Which came as a surprise 
                 A5                           D5 
I spoke into his eyes -- I thought you died alone 
                    C5 
A long long time ago 
 
  Riff 1 
E|-----------------|-   
B|-----------------|-   
G|-----------------|-   
D|------------2-3-5|-   
A|------2-3-5------|-    
E|-3-5-------------|- 2x   
 Riff 2 
D|------------0-1-3|-   
A|------0-1-3------|-    
E|-1-3-------------|- 2x 
 
 
RIFF1          RIFF1 
Oh no, not me, 
             RIFF2 
We never lost control, 
        RIFF2 
You're face to face, 
         C#5             
With the man who sold the world 
 
{Repeat Intro} 
 
                        A5 
I laughed and shook his hand, 
                  D5 
I made my way back home, 
                        A 
I searched for form and land, 
                      F5 
Years and years I roamed, 
                 C5 
I gazed a gazely stare, 
                     A5                         D5 
We walked a million hills -- I must have died alone, 
                    RIFF 
A long long time ago. 
 
               RIFF 
Who knows, not me, 
  C#5                RIFF 
I never lost control, 
          RIFF      RIFF 
You're face, to face, 
         C#5               
With the man who sold the world. 
 
{Repeat Intro} 
{Repeat second chorus} 
{Repeat Intro} 
 
Outro: (Not very accurate, but at least the right notes) 
E|-------------------------------------------------------- 
B|-------------------------------------------------------- 
G|--2-2-2-0--2h3p2-0--2-2-2-0--2h3p2-0--/9-9-9-9-9-9-9-9-- 
D|-------------------------------------------------------- 
A|-------------------------------------------------------- 
E|-------------------------------------------------------- 
 
E|------------------------------------------------------- 
B|------------------------------------------------------- 
G|--2-2-2-0--2h3p2-0--2-2-2-0--2h3p2-0-/10-10-10-10-10-- 
D|------------------------------------------------------- 
A|------------------------------------------------------- 
E|------------------------------------------------------- 
 
E|------------------------------------------------------- 
B|------------------------------------------------------- 
G|-9-7-7-7-7-7-7-/9-9-9-9-9-2-2-2-0-2h3p2-0-/10-10-10- 
D|------------------------------------------------------- 
A|------------------------------------------------------- 
E|------------------------------------------------------- 
 
E|------------------------------------------------------- 
B|------------------------------------------------------- 
G|-10-10-9-7-7-7-7-7-7-/9-9-9-9-9-2-2-2-0-2h3p2-0--2-- 
D|------------------------------------------------------- 
A|------------------------------------------------------- 
E|------------------------------------------------------- 
 
 
Versão 2: 
 
Afinação: 
 
D# G# C# F# A# D# 
 
Introdução: 
                      6x 
G|--2-2-2-0--2h3p2-0---|--2--| 
 
                    A 
We passed upon the stairs 
                  Dm 
Spoken walls and wells 
                  A 
Although I wasn´t there 
                  F 
He said I was his friend 
                    C 
Which came as so surprised 
                 A 
I spoke into his eyes 
                    Dm 
I thought you died alone 
                     C 
A long, long time ago 
           F 
Oh no, not me 
   Bb                F 
We never lost control 
          C        F 
You're face to face 
         Bb               A 
With the man who sold the world 
 
Introdução 
 
                        A 
I laughed and shook his hand 
                  Dm 
Made my way back home 
                         A 
I searched from farther land 
                      F 
Years and years I roamed 
                      C 
I gazed all gazers there 
                     A 
We walked a million hills 
                  Dm 
I must have died alone 
                     C 
A long, long time ago 
               F 
Who knows, not me 
  Bb                F 
I never lost control 
          C       F 
You're face, to face 
         Bb               A 
With the man who sold the world 
 
                      4x 
G|--2-2-2-0--2h3p2-0---| 
 
C              F 
Who knows, not me 
   Bb                F 
We never lost control 
          C       F 
You're face, to face 
         Bb               A 
With the man who sold the world 
 
                     8x 
G|--2-2-2-0--2h3p2-0---| 
 
Solo: 
 
G|-/9-9-9-9-9-9--2-2-2-0--2h3p2-0--2-2-2-0-2h3p2-0-| 
 
G|-/10-10-10-10-10-10-9-7-7-7-7-7-7-/9-9-9-9-9-9--2-2-2-0-2h3p2-0-2-2-2-0--2h3p2-0-| 
 
G|-/10-10-10-10-10-10-9-7-7-7-7-7-7-/9-9-9-9-9-9--2-2-2-0-2h3p2-0-2-2-2-0--2h3p2-0---2-| 
 
Segunda Guitarra 
 
       Riff 1                 Riff 2 
E|-----------------|   |-----------------| 
B|-----------------|   |-----------------| 
G|-----------2-4-5-|   |-----------------| 
D|-----2-3-5-------|   |-----------0-2-3-| 
A|-3-5-------------|   |-----0-1-3-------| 
E|-----------------|   |-1-3-------------| 
 
Faz base junto com a primeira, mas no Refrão (após "A long, long time 
 ago"), toca primeiro o Riff 1, 3 vezes, depois o Riff 2 3 vezes e  
por último o Riff 1 novamente, 3 vezes, terminando após "With the man 
 who sold the world". 
No solo, a base faz: (A Dm F Dm) x3 
 
_______________________________________________________ 
Contribuição: Eric Henrique de Souza(erichs@enersulnet.com.br) 
	  

Solicitar el vídeo de "The Man Who Sold The World" - Descargar The Man Who Sold The World mp3

No existe una video leccione para esta canción

solicitar
Aumentar uno tonoAumentar uno tono
Aumentar uno semi-tonoAumentar uno semi-tono
Disminuir uno semi-tonoDisminuir uno semi-tono
Disminuir uno tonoDisminuir uno semi-tono
140

Envie sus comentários.

0 comentários

 
LosAcordes
Buscar
auto avanzar rasgueos aumentar disminuir cambiar color esconder acordes gráficos
losacordes exhibir acordes losacordes youTube video losacordes ocultar tabs losacordes cambiar notación losacordes ir hacia arriba losacordes