Nino Rota

Início > Nino Rota > acordes

Speak Softly Love (O Poderoso Chefão) Tablatura

Nino Rota

Dificultad:FácilFácil

por Acelot

tuner correct add songbook print version text version salvar en e-mail
acordesukuleletablaturabajobateríaarmónicaflautacavacopiano Guitar Pro
acordes

Speak Softly Love (O Poderoso Chefão)

Áño: 1972 -

(Nino Rota)

	  

Nino Rota  
                            Harmônicos  
   
e|-------------|-----------------------|-------------|  
B|-3---3-4-3---|-----------------------|-3---3-4-3---|  
G|-3-6---3---3-|----12--(3)15-(2)14-12-|-3-6---3---2-|  
D|-3-----3-----|-12--------------------|-3-----3---3-|  
A|-------------|-----------------------|-----------5-|  
E|-3-----3---3-|-----------------------|-3-----3-----|  


Harmônicos               Trêmulo  

e|------------------|--10-10-10---10-10-10---10-10-10-|  
B|------------------|----------------------6----------|  
G|---7-(3)10-(2)9-7-|-----------7---------------------|  
D|-7----------------|-0-------------------------------|  
A|------------------|---------------------------------|  
E|------------------|---------------------------------|  


e|---10-10-10---9-9-9---9-9-9---10-10-10---10-10-10---10-10-10/13-|  
B|----------------------------6---------------------6-------------|  
G|-7-----------------7------------------7-------------------------|  
D|------------0---------------------------------------------------|  
A|----------------------------------------------------------------|  
E|----------------------------------------------------------------|  



e|---13-13-13----13-13-13----13-13-13----13-13-13----10-10-10---|  
B|------------------------10------------------------------------|  
G|------------10----------------------10----------10------------|  
D|-0------------------------------------------------------------|  
A|--------------------------------------------------------------|  
E|--------------------------------------------------------------|  


e|---9-----12-10------6-5-6/10-9--5--------------------7-9-10-12-|  
B|-11-10--------------3-----8-----5---------------8-10-----------|  
G|---------12-10-9-7--3-----7-----6------6-7-9-10----------------|  
D|--------------------------8--------7-9-------------------------|  
A|---------------------------------------------------------------|  
E|--------------------3-----------5------------------------------|  


e|--13-15/17-17---|  
B|----------------|  
G|----------------|  
D|----------------|  
A|----------------|  
E|----------------|  



e|-----------------------------1---1----------------------------|  
B|---------3---3---3-----------3---3--------3---3---3-----------|  
G|---------2---2---3---------2---2----------2---2---3-----------|  
D|-----0-3-2-0-3-0-2-0------------------0-3-2-0-3-0-2-0---------|  
A|---0-----------------1-3-0----------0-----------------0-------|  
E|--------------------------------------------------------4-----|  


e|-----------------------0-----------------1--------------------|  
B|-------3---3-----------3-----------------3---------------1----|  
G|-------3---3---------3-------------------2--------------------|  
D|-----3---3---------2-------------------0-------------0-3------|  
A|-----------------4-----------0-1---1-4-----0------------------|  
E|---3---------3-6---------3-4-----3-----------3-2-1-0----------|  


e|-----------------------1---1-------------------0--------------|  
B|-------1---------------3---3--3-3-2-1---1---1--1-3-------1----|  
G|---3-2---3-3-2-2-----2---2--------------0---0--0---3-2--------|  
D|-----------1-------0------------------2---2------------3---3--|  
A|-----------0-----4--------------------------------------------|  
E|---3--------------------------------0----------------1--------|  


e|------------------------------|  
B|------1-----------------------|  
G|----2---2-0---0-------3---2---|  
D|------------1---1---5---5-5---|  
A|------------------5-------4---|  
E|---1------3-------------------|  





e|------1-0---1---0-----------1---------1-0---1---0-----------|  
B|----3---3-3---3-3-3---1---3---3-----3---3-3---3-3-3---------|  
G|--2-----2-------3---3---2---------2-----2-------3---2-1-0---|  
D|--------0---------------0-------0-------0-----------------0-|  
A|------------------------------------------------------------|  
E|----------------3-------------------------------3-------3---|  


e|---------------0---------------8-6-5-8-6-6-5-5-9/-10--------|  
B|-------------2-3-----2-3-----6---5-------8--------10--------|  
G|--0------0-3---3-0-3-------7-----6-------8--------10--------|  
D|----0-------------------------------------------------------|  
A|---------------------------------0--------------------------|  
E|------3--------3-------1-0------------------------10--------|  

	  

No existe una video leccione para esta canción

request
LosAcordes
Buscar
auto avanzar rasgueos aumentar disminuir cambiar color esconder acordes gráficos
losacordes exhibir acordes losacordes youTube video losacordes ocultar tabs losacordes ir hacia arriba losacordes