Muse

Início > Muse > acordes

Unintended Tablatura

Muse

Dificultad:ExpertoExperto

por gatus

tuner correct add songbook print version text version salvar en e-mail
acordesukuleletablaturabajobateríaarmónicaflautacavacopiano Guitar Pro
acordes

Unintended

Áño: 1999 - Álbum: Haarp CD/DVD Set

	   Muse - Unintended   
 
 
Para Violão: 
 
 
   1   2   3   4    1   2   3   4    1   2   3   4    1   2   3   4    
 
 
E-|-------0-----------------------|---------0--------------------|----------2------------|---------2----------| 
B-|-------0---------------210--|----0---0----------210----|-----0------0---------|-----0------0------| 
G-|-------1-----1------1------2|01---------------1------2--|-------2-------2----2|-------2-------2---| 
D-|---2-----2-------2--------+-|------2---------2------------|---1--------------1---|---1-----------1---| 
A-|---------------02-------------|--------------02-------------|2-----------------------|2-------------------| 
E-|0------------------------------|0-----------------------------|------------------------|---------------------| 
 
 
 
E-|--------0--------|----------0--------|---------2--------|---------3---------| 
B-|----0-----0-----|-----1------1-----|-----3-----3-----|-----3------3-----| 
G-|------1-----1---|-------2------2---|---2----2-----2-|-------0------0---| 
D-|--2-----------2-|--2-------------2-|0-------------0--|--0-------------0-| 
A-|-------------------|0-----------------|-------------------|---------------------| 
E-|0----------------|--------------------|-------------------|3------------------| 
 
E-|---------0------------|----------2-----------|-----------0--------|------------0---------| 
B-|-----1------1--------|-----0------0--------|------0-----0------|----0--------0-------| 
G-|-------0------0----0|-------2------2----2|---------1-----1---|--------1-------1----| 
D-|---2-------------2---|---1-------------1---|-2---------------2-|--2----------------2-| 
A-|3----------------------|2---------------------|---------------------|----------------------| 
E-|-----------------------|-----------------------|0-------------------|0---------------------| 
 
E-|---------0---------|---------0---------|-----------2-------|---------3----------| 
B-|-----0-----0------|-----1------1-----|------3-----3-----|----3-------3------| 
G-|-------1------1---|-------2------2---|---2---2-----2---|-------0-------0---| 
D-|--2-------------2-|--2----------------|0--------------0--|--0--------------0-| 
A-|--------------------|0------------------|--------------------|---------------------| 
E-|0------------------|--------------------|--------------------|3-------------------| 
 
E-|----------0---------|----------2---------|--------0------------|---------0----------| 
B-|-----1------1------|-----0-------0-----|----0-----0---------|-----0------0------| 
G-|--------0------0---|--------2------2---|-----1-------1----1|-------1-------1---| 
D-|--2--------------2-|--1--------------1-|--2-------------2---|--2--------------2-| 
A-|3-------------------|2-------------------|----------------------|----------------------| 
E-|---------------------|---------------------|0--------------------|0-------------------| 
-- 
 
|--> 
 
E-|--------0-------|--------0-------|--------2-------|--------3-------| 
B-|----0-----0-----|----1-----1-----|----3-----3-----|----3-----3-----| 
G-|------1-----1---|------2-----2---|--2---2-----2---|------0-----0---| 
D-|--2-----------2-|--2-----------2-|0-------------0-|--0-----------0-| 
A-|----------------|0---------------|----------------|----------------| 
E-|0---------------|----------------|----------------|3---------------| 
 
E-|--------0-------|--------2-------|--------0-------|--------0-------| 
B-|----1-----1-----|----0-----0-----|----0-----0-----|----0-----0-----| 
G-|------0-----0---|------2-----2---|------1-----1---|------1-----1---| 
D-|--2-----------2-|--1-----------1-|--2-----------2-|--2-----------2-| 
A-|3---------------|2---------------|----------------|----------------| 
E-|----------------|----------------|0---------------|0---------------| 
 
                                                           Repetir  <--| 
 
 
E-|--------0-------|--------0-------|--------2-------|--------3-------| 
B-|----0-----0-----|----1-----1-----|----3-----3-----|----3-----3-----| 
G-|------1-----1---|------2-----2---|--2---2-----2---|------0-----0---| 
D-|--2-----------2-|--2-----------2-|0-------------0-|--0-----------0-| 
A-|----------------|0---------------|----------------|----------------| 
E-|0---------------|----------------|----------------|3---------------| 
 
E-|--------0-------|--------2-------|--------0-------|------------2---| 
B-|----1-----1-----|----0-----0-----|----0-----0-----|----0-----0--0--| 
G-|------0-----0---|------2-----2---|------1-----1---|------0----2--2-| 
D-|--2-----------2-|--1-----------1-|--2-----------2-|--2------1-----1| 
A-|3---------------|2---------------|2---------------|--------2-------| 
E-|----------------|----------------|----------------|3---------------| 
 
 
|--> 
 
E-|--------0-------|--------0-------|--------2-------|--------3-------| 
B-|----0-----0-----|----1-----1-----|----3-----3-----|----3-----3-----| 
G-|------1-----1---|------2-----2---|--2---2-----2---|------0-----0---| 
D-|--2-----------2-|--2-----------2-|0-------------0-|--0-----------0-| 
A-|----------------|0---------------|----------------|----------------| 
E-|0---------------|----------------|----------------|3---------------| 
 
E-|--------0-------|--------2-------|--------0-------|--------0-------| 
B-|----1-----1-----|----0-----0-----|----0-----0-----|----0-----0-----| 
G-|------0-----0---|------2-----2---|------1-----1---|------1-----1---| 
D-|--2-----------2-|--1-----------1-|--2-----------2-|--2-----------2-| 
A-|3---------------|2---------------|----------------|----------------| 
E-|----------------|----------------|0---------------|0---------------| 
 
                                                           Repetir  <--| 
 
 
E-|--------0-------|--------0-------|--------0-------|--------0-------| 
B-|----1-----1-----|----1-----1-----|----1-----1-----|----0-----0-----| 
G-|------2-----2---|------2-----2---|------2-----2---|------2-----2---| 
D-|--2-----------2-|--2-----------2-|--2-----------2-|--2-----------2-| 
A-|0---------------|----------------|----------------|----------------| 
E-|----------------|3---------------|2---------------|1---------------| 
 
E-|--------0-------|--------0-------|--------0-------|----------------| 
B-|----0-----0-----|----0-----0-----|----------0-----|----------------| 
G-|------2-----2---|------2-----2---|----1-------1---|----------------| 
D-|--2-----------2-|--2-----------2-|--2---2-------2-|----------------| 
A-|----------------|----------------|----------------|----------------| 
E-|0---------------|0---------------|0---------------|0---------------| 
 
 
 
Letra: 
 
You could be my unintended,  
Choice to live my life extended,  
You could be the one I'll always love.  
 
You could be the one who listens,  
To my deepest inquisitions,  
You could be the one I'll always love.  
 
I'll be there as soon as I can,  
But I'm busy mending broken,  
Pieces of the life I had before.  
 
First there was the one who challenged,  
All my dreams and all my balance,  
She could never be as good as you.  
 
You could be my unintended,  
Choice to live my life extended,  
You should be the one I'll always love.  
 
I'll be there as soon as I can,  
But I'm busy mending broken,  
Pieces of the life I had before.  
 
I'll be there as soon as I can,  
But I'm busy mending broken,  
Pieces of the life I had before.  
Before you. 
	  

No existe una video leccione para esta canción

request
LosAcordes
Buscar
auto avanzar rasgueos aumentar disminuir cambiar color esconder acordes gráficos
losacordes exhibir acordes losacordes youTube video losacordes ocultar tabs losacordes ir hacia arriba losacordes