A B C D E F G H I J K L M N O P Q R S T U V X Y Z 0-9
Misfits

Início > Misfits > acordes

Misfits

Saturday Night

Dificultad:PrincipiantePrincipiante

tuner corregir añadir para songbook version para impresion version de texto version rtf e-mail
acordestablaturabajobateríaarmónicaflautacavacopiano Guitar Pro
acordes

Saturday Night

	   obs.: versão para afinação em E 
para guitarras afinadas em Eb tocar uma casa acima
tom original Eb

intro: Bb C# Bb F# G#

e|-----------------------------------------------------------------------|
B|-----------------------------------------------------------------------|
G|----------------------------------------------------------------6------|
D|----------------------------------------------------------------6------|
A|-4~~~~--6/8--6--4--6-6/8--4~~~-4--6-6/8--4~~~--6-4-3~~~--3-4-6--4------|
E|-----------------------------------------------------------------------|

C#                        Bb
There's 52 ways to murder anyone 
      F#                                      
One & two are the same, 
                      G#
and they both work as well 
                     C#                                      
I'm coming clean for Amy, 
              Bb                     
Julie doesn't scream as well and the 
F#                    G#
cops won't listen all night 
   C#                   Bb 
So maybe, maybe I'll be over 
        F#                  G#
Just as soon as I fill them all in
F#             G#                C#
And I can't remember when I saw her last 
        F#          G#                  C#
We were running all around and having a blast, 

having a blast
        F#               G#                            
But the back seat of the drive-in is so 
C#        Bb      F#                 G#
lonely without you I know when youre home 
      C#                             
I was thinking about you, 
          Bb
there was something I forgot to say 
       F#         G#       C#
I was crying on a Saturday night 
                                           
I was out cruising without you, 
           Bb
they were playing our song 
F#        G#       C#
Crying on Saturday Night 

e|-----------------------------------------------------------------------|
B|-----------------------------------------------------------------------|
G|----------------------------------------------------------------8------|
D|----------------------------------------------------------------8------|
A|-4~~~~--6/8--6--4--6-6/8--4~~~-4--6-6/8--4~~~--6-4-3~~~--3-4-6--6------|
E|-----------------------------------------------------------------------|

D#                      C                 
As the moon becomes the night time 
G#                        Bb
you go viciously, quietly away 
                   D#                                                   
I'm sitting in the bedroom, 
                 C
where we used to sit and smoke cigarettes now 
G#                         Bb 
I'm watching, watching you die 
G#            Bb                D#
And I can't remember when I saw her last 
   G#                Bb                 D#
We were running all around and having a blast 
        G#               Bb                   
But the back seat of the drive-in 's 
D#        C
so lonely without you 
G#                 Bb 
I know when you're home 
      D#                                                  
I was thinking about you, 
          C
there was something I forgot to say 
      G#          Bb           D#
I was crying on a Saturday night 
                                          
I was out cruising without you, 
          C
they were playing our song 
G#        Bb       D#         D# D C Bb 
Crying on Saturday Night
G#        Bb       D#         D# D C Bb  
Crying on Saturday Night     
G#           Bb              D#        
Crying oooooon Sa-tur-daaaay Niiiight

  e|---------------------------------------------| 
  B|---------------------------------------------|
  G|--8---7---5--5-5--5-5------------------------|
  D|--x---x---x--x-x--x-x---8--------------------|
  A|--6---5---3--3-3--3-3---x--------------------|
  E|------------------------6--------------------|

	  

Solicitar el vídeo de "Saturday Night" - Descargar Saturday Night mp3

No existe una video leccione para esta canción

solicitar
Aumentar uno tonoAumentar uno tono
Aumentar uno semi-tonoAumentar uno semi-tono
Disminuir uno semi-tonoDisminuir uno semi-tono
Disminuir uno tonoDisminuir uno semi-tono
140

Envie sus comentários.

0 comentários

 
LosAcordes
Buscar
auto avanzar rasgueos aumentar disminuir cambiar color esconder acordes gráficos
losacordes exhibir acordes losacordes youTube video losacordes ocultar tabs losacordes cambiar notación losacordes ir hacia arriba losacordes