Misc Soundtrack

Início > Misc Sound... > acordes

Sing Street - Riddle Of The Model Tablatura

Misc Soundtrack

Dificultad:Ningún gradoNingún grado

por ubirbomfim

tuner correct add songbook print version text version salvar en e-mail
acordesukuleletablaturabajobateríaarmónicaflautacavacopiano Guitar Pro
acordes

Sing Street - Riddle Of The Model

	  
Intro 

e|-------5-----------5-----------5-------------5------------5-----------5----------| 
B|-----------6----------6-----------6--------------6------------6----------6-------| 
G|--5------------5----------5--------------4-----------4-----------4---------------| 
D|---------------------------------------------------------------------------------| 
A|---------------------------------------------------------------------------------| 
E|---------------------------------------------------------------------------------| 

e|-------5------------5-----------5------------5-----------5-----------------------| 
B|-----------6------------6----------6------------6--------------------------------| 
G|--5------------5-----------5-------------4----------4--------5--5--5h7-----------| 
D|---------------------------------------------------------------------------------| 
A|---------------------------------------------------------------------------------| 
E|---------------------------------------------------------------------------------| 


Verse 

e|-------5-----------5-----------5-------------5------------5-----------5----------| 
B|-----------6----------6-----------6--------------6------------6----------6-------| 
G|--5------------5----------5--------------4-----------4-----------4---------------| 
D|---------------------------------------------------------------------------------| 
A|---------------------------------------------------------------------------------| 
E|---------------------------------------------------------------------------------| 

e|-------5------------5-----------5------------5-----------5-----------------------| 
B|-----------6------------6----------6------------6--------------------------------| 
G|--5------------5-----------5-------------4----------4--------5--5--5h7-----------| Play the hammer-on 
D|---------------------------------------------------------------------------------| around where the lyrics 
A|---------------------------------------------------------------------------------| "dangerous eyes" are 
E|---------------------------------------------------------------------------------| said 

e|-------5-----------5-----------5-------------5------------5-----------5----------| 
B|-----------6----------6-----------6--------------6------------6----------6-------| 
G|--5------------5----------5--------------4-----------4-----------4---------------| 
D|---------------------------------------------------------------------------------| 
A|---------------------------------------------------------------------------------| 
E|---------------------------------------------------------------------------------| 

e|-------5------------5-----------5---------------5--5--5--------------------------| 
B|-----------6------------6----------6------------6--6--6--------------------------| 
G|--5------------5-----------5--------------------4--4--4--------------------------| 
D|---------------------------------------------------------------------------------| 
A|---------------------------------------------------------------------------------| 
E|---------------------------------------------------------------------------------| 


Chorus 

e|--5----5----7-----2------3-----5-----5-----7-----2----3-----5----5---7----2---3---5--|*STRUMMING PATTERN IS 
B|--5----5----8-----3------3-----5-----5-----8-----3----3-----5----5---8----3---3---5--|     NOT SHOWN* 
G|--6----5----9-----4------4-----6-----5-----9-----4----4-----6----5---9----4---4---6--| 
D|--7----7----9-----4------5-----7-----7-----9-----4----5-----7----7---9----4---5---7--| 
A|--7----7----7-----2------5-----7-----7-----7-----2----5-----7----7---7----2---5---7--| 
E|--5----5-----------------3-----5-----5----------------3-----5----5------------3---5--| 

e|---------------------------------------------------------------------------| 
B|---------------------------------------------------------------------------| 
G|---5--5--5h7---------------------------------------------------------------| 
D|---------------------------------------------------------------------------| 
A|---------------------------------------------------------------------------| 
E|---------------------------------------------------------------------------| 


Verse 

e|-------5-----------5-----------5-------------5------------5-----------5----------| 
B|-----------6----------6-----------6--------------6------------6----------6-------| 
G|--5------------5----------5--------------4-----------4-----------4---------------| 
D|---------------------------------------------------------------------------------| 
A|---------------------------------------------------------------------------------| 
E|---------------------------------------------------------------------------------| 

e|-------5------------5-----------5------------5-----------5-----------------------| 
B|-----------6------------6----------6------------6--------------------------------| 
G|--5------------5-----------5-------------4----------4--------5--5--5h7-----------| 
D|---------------------------------------------------------------------------------| 
A|---------------------------------------------------------------------------------| 
E|---------------------------------------------------------------------------------| 

e|------7-------------7----------7-------------7---------7----------7--------------| 
B|----------8-------------8---------8-------------8---------8----------8-----------| *SINGING STARTS AT THIS 
G|--7-----------7------------7------------6-----------6--------6-------------------|   LINE* 
D|---------------------------------------------------------------------------------| 
A|---------------------------------------------------------------------------------| 
E|---------------------------------------------------------------------------------| 

e|------7-------------7----------7-------------7---------7-------------------------| 
B|----------8-------------8---------8-------------8--------------------------------| 
G|--7-----------7------------7------------6-----------6-------7--7--7h9------------| 
D|---------------------------------------------------------------------------------| 
A|---------------------------------------------------------------------------------| 
E|---------------------------------------------------------------------------------| 

e|------7-------------7----------7-------------7---------7----------7--------------| 
B|----------8-------------8---------8-------------8---------8----------8-----------| 
G|--7-----------7------------7------------6-----------6--------6-------------------| 
D|---------------------------------------------------------------------------------| 
A|---------------------------------------------------------------------------------| 
E|---------------------------------------------------------------------------------| 

e|------7-------------7----------7-----------7---7----7----------------------------| 
B|----------8-------------8---------8--------8---8----8----------------------------| 
G|--7-----------7------------7---------------6---6----6----------------------------| 
D|---------------------------------------------------------------------------------| 
A|---------------------------------------------------------------------------------| 
E|---------------------------------------------------------------------------------| 


Chorus 

e|--5----5----7-----2------3-----5-----5-----7-----2----3-----5----5---7----2---3---5--|*STRUMMING PATTERN IS 
B|--5----5----8-----3------3-----5-----5-----8-----3----3-----5----5---8----3---3---5--|     NOT SHOWN* 
G|--6----5----9-----4------4-----6-----5-----9-----4----4-----6----5---9----4---4---6--| 
D|--7----7----9-----4------5-----7-----7-----9-----4----5-----7----7---9----4---5---7--| 
A|--7----7----7-----2------5-----7-----7-----7-----2----5-----7----7---7----2---5---7--| 
E|--5----5-----------------3-----5-----5----------------3-----5----5------------3---5--| 

e|---------------------------------------------------------------------------| 
B|---------------------------------------------------------------------------| 
G|---5--5--5h7---------------------------------------------------------------| 
D|---------------------------------------------------------------------------| 
A|---------------------------------------------------------------------------| 
E|---------------------------------------------------------------------------| 


***STRUMMING PART*** 
STRUMMING PATTERN IS NOT SHOWN 


Intro 

e|----5------5------5-----5---------| 
B|----6------6------6-----6---------| 
G|----5------4------5-----4---------| 
D|----------------------------------| 
A|----------------------------------| 
E|----------------------------------| 


Verse 

e|----5------5------5-----5----5---5----5--5---| 
B|----6------6------6-----6----6---6----6--6---| 
G|----5------4------5-----4----5---4----5--4---| 
D|---------------------------------------------| 
A|---------------------------------------------| 
E|---------------------------------------------| 


Chorus 

e|--5----5----7-----2------3-----5-----5-----7-----2----3-----5----5---7----2---3---5--| 
B|--5----5----8-----3------3-----5-----5-----8-----3----3-----5----5---8----3---3---5--|      
G|--6----5----9-----4------4-----6-----5-----9-----4----4-----6----5---9----4---4---6--| 
D|--7----7----9-----4------5-----7-----7-----9-----4----5-----7----7---9----4---5---7--| 
A|--7----7----7-----2------5-----7-----7-----7-----2----5-----7----7---7----2---5---7--| 
E|--5----5-----------------3-----5-----5----------------3-----5----5------------3---5--| 


Verse 

e|----5------5------5-----5----5----6----7----7----7----7----7----7-----7-----7---| 
B|----6------6------6-----6----6----7----8----8----8----8----8----8-----8-----8---| 
G|----5------4------5-----4----5----7----7----6----7----6----7----6-----7-----6---| 
D|--------------------------------------------------------------------------------| 
A|--------------------------------------------------------------------------------| 
E|--------------------------------------------------------------------------------| 


Chorus 

e|--5----5----7-----2------3-----5-----5-----7-----2----3-----5----5---7----2---3---5--| 
B|--5----5----8-----3------3-----5-----5-----8-----3----3-----5----5---8----3---3---5--|      
G|--6----5----9-----4------4-----6-----5-----9-----4----4-----6----5---9----4---4---6--| 
D|--7----7----9-----4------5-----7-----7-----9-----4----5-----7----7---9----4---5---7--| 
A|--7----7----7-----2------5-----7-----7-----7-----2----5-----7----7---7----2---5---7--| 
E|--5----5-----------------3-----5-----5----------------3-----5----5------------3---5--| 

************************************ 
| h   Hammer-on 
************************************ 
	  

No existe una video leccione para esta canción

request
LosAcordes
Buscar
auto avanzar rasgueos aumentar disminuir cambiar color esconder acordes gráficos
losacordes exhibir acordes losacordes youTube video losacordes ocultar tabs losacordes ir hacia arriba losacordes