A B C D E F G H I J K L M N O P Q R S T U V X Y Z 0-9
Misc Soundtrack

Início > Misc Sound... > acordes

Misc Soundtrack

Sherlock Theme

Dificultad:ExpertoExperto

por ubirbomfim

tuner corregir añadir para songbook version para impresion version de texto version rtf e-mail
acordestablaturabajobateríaarmónicaflautacavacopiano Guitar Pro
acordes

Sherlock Theme

	  e---------------------|---0----------------|---0---0---0-2---0-|-3----------------| 
B---0---0---0-1---0---|--------1---1---1---|---------4---------|---0---0--0---0---| 
G---0---0-3-----------|-2------2---2---2---|-2-----------------|---0---0--0---0---| 
D---2-----------------|-----2--------2-----|-----2---------2---|------------------| 
A-----2---------2-----|-0--------0---------|-0-------0---------|-----2------2-----| 
E-0-------0-----------|--------------------|-------------------|-0-------0--------| 

e-6/7--0--0-2-3--2/3/2--0--|-4/5--0------------0h2--|-3—3/5-2-2h3-0—0h2-----------| 
B--------------------------|-----------2---2--------|-2-----1-----1-----4—1p0-----| 
G--------------------------|-----------2---2--------|-1-----2-----2---------------| 
D--------------------------|--------2--------2------|-----------------------------| 
A------2-------2-----------|-0-----------0----------|-0-----0-----0-----0---------| 
E-0--------0---------------|------------------------|-----------------------------| 
	  

Solicitar el vídeo de "Sherlock Theme" - Descargar Sherlock Theme mp3

No existe una video leccione para esta canción

solicitar
140

Envie sus comentários.

0 comentários

 
LosAcordes
Buscar
auto avanzar rasgueos aumentar disminuir cambiar color esconder acordes gráficos
losacordes exhibir acordes losacordes youTube video losacordes ocultar tabs losacordes cambiar notación losacordes ir hacia arriba losacordes