Misc Soundtrack

Início > Misc Sound... > acordes

Maplestory Ellinia Theme Tablatura

Misc Soundtrack

Dificultad:ExpertoExperto

por hugo_rodrigues

tuner correct add songbook print version text version salvar en e-mail
acordesukuleletablaturabajobateríaarmónicaflautacavacopiano Guitar Pro
acordes

Maplestory Ellinia Theme

	  
repeat each note x2 
e||-1-------------------------------1---------------------------------| 
B||---1-3-------------1-3-4-1-3-4-----3-4---1---------1-3---1-4-3-----| 
G||-------3-2-3-0-2-3-------------2-------3---3-3-2-3-----3-------2---| 
D||-------------------------------------------------------------------| 
A||-------------------------------------------------------------------| 
E||-------------------------------------------------------------------| 

repeat each note x2 
e||---------------------------------------------------------------------| 
B||------------------------1-3-4-------------------(3)------------------| 
G||-0-2-3---0-2-3-3--0-2-3-------3-2-0-2-3---0-2-3----3-3-3-3-3-3-3-3---| 
D||-------3--------------------------------3----------------------------| 
A||---------------------------------------------------------------------| 
E||---------------------------------------------------------------------| 
					     
(Single note)   			 (Repeat sequence x2) 
e||-1-------------------------------1-||-------------------------------1-| 
B||---1-3-------------1-3-4-1-3-4-----||-3-4---1---------1-3---1-4-3-4---| 
G||-------3-2-3-0-2-3-------------2---||-----3---3-3-2-3-----3-----------| 
D||-----------------------------------||---------------------------------| 
A||-----------------------------------||---------------------------------| 
E||-----------------------------------||---------------------------------| 

e||--------------------------------------------| 
B||-(3-4---1)----------------------------------| 
G||-----(3---3-3-2-3--2-0-2)—0-2-3---0-2-3-3-| 
D||--------------------------------3---------| 
A||--------------------------------------------| 
E||--------------------------------------------| 

repeat each note x2 
e||-------------------------------------------------| 
B||-------1-3-4--------------------(3)--------------| 
G||-0-2-3---------3-2-0-2-3---0-2-3---3-3-3-3-3-3-3-| 
D||-------------------------3-----------------------| 
A||-------------------------------------------------| 
E||-------------------------------------------------| 

repeat each note x2                  repeat note + sequence x2 
e||---------------------------------1-||-------------------------------1-| 
B||---1-3-------------1-3-4-1-3-4-----||-3-4---1---------1-3---1-4-3-4---| 
G||-------3-2-3-0-2-3-------------2---||-----3---3-3-2-3-----3-----------| 
D||-3---------------------------------||---------------------------------| 
A||-----------------------------------||---------------------------------| 
E||-----------------------------------||---------------------------------| 

repeat each note x2 
e||----------------------------------------------------------------------| 
B||-3-4---1------------------------------------------1-3-4-1-3-----------| 
G||-----3---3-3-2-(3--2-0-2)--0-2-3---0-2-3-3--0-2-3-----------0-2-3---0-| 
D||---------------------------------3--------------------------------3---| 
A||----------------------------------------------------------------------| 
E||----------------------------------------------------------------------| 

e||----------------------------------------------------------------------| 
B||-----(3-3/6-4-3-4-3-4—6)------------------------1-3-4-1-3-------------| 
G||-2-3---------------------0-2-3---0-2-3-3--0-2-3------------0-2-3----0-| 
D||-------------------------------3----------------------------------3---| 
A||----------------------------------------------------------------------| 
E||----------------------------------------------------------------------| 

e||--------------------------------------------------------------------| 
B||-----3--------------------------------------------------------------| 
G||-2-3---3-3-3-3-3-3-3-3----------------------------------------------| 
D||--------------------------1-------3---0---------------0-1---0-1---3-| 
A||-------------------------3-3-0-1----3---1-0-1---0-1-3-----3-----0---| 
E||----------------------------------------------3---------------------| 

e||--------------------------------------------------------------------| 
B||--------------------------------------------------------------------| 
G||--------------------------------------------------------------------| 
D||-0-1---------------0-----1-0---------------------------0-1----------| 
A||-----1-3-1-1-0-1-3---1-3-----0---0-1-----0-1-1---0-1-3-----1-0---0--| 
E||-------------------------------3-----1-3-------3---------------3----| 

e||---------------------------| 
B||---------------------------| 
G||---------------------------| 
D||-----------0---------------| 
A||-1-----0-1---1-1-1-1-1—1-1-| 
E||---1-3---------------------|  
	  

No existe una video leccione para esta canción

request
LosAcordes
Buscar
auto avanzar rasgueos aumentar disminuir cambiar color esconder acordes gráficos
losacordes exhibir acordes losacordes youTube video losacordes ocultar tabs losacordes ir hacia arriba losacordes