A B C D E F G H I J K L M N O P Q R S T U V X Y Z 0-9
Megadeth

Início > Megadeth > acordes

Megadeth

The Killing Road

Dificultad:Ningún gradoNingún grado

tuner corregir añadir para songbook version para impresion version de texto version rtf e-mail
acordestablaturabajobateriaarmónicaflautacavacopiano Guitar Pro
acordes

The Killing Road

Áño: 1994 - Álbum: Youthanasia

	   
INTRO I 
E---------------------------------------- 
B---------------------------------------- 
G----------------------------------------2X 
D---------------------------------------- 
A-------7-------8-------7-------8-----5 
E-0?-0?-- 0-?0?-- 0?-0?-- 0?-0?-- 0?-- 
 
INTRO II 
E---------------------------------------- 
B---------------------------------------- 
G-------9------10-------9------10-----2X 
D-------9------10-------9------10----- 
A-------7-------8-------7-------8-----5 
E-0?-0?-- 0-?0?-- 0?-0?-- 0?-0?-- 0?? 
 
INTRO III e estrofe 
E------------------------------------------------ 
B------------------------------------------------ 
G------------------------------------------------ 
D------------------------------------5----------- 
A-------7-------8-------7-----5/2-------------- 
E-0?-0?-- 0-?0?-- 0?-0?-- 0?----------3-2-1-1 
 
E------------------------------------------------- 
B------------------------------------------------- 
G------------------------------------------------- 
D---3------3----3------------11------------9--- 
A--------------------------10------------9------ 
E-----1-1----1------8-8----------7-7---------0     Usar essa nota somente antes do refrão  
 
 
 
REFRÃO 
E5     B5  A#5   G5 F5 E   E5         B5  A#5 G5 F5 E 
I lost my mind,                  I lost all my money 
E5     B5  A#5   G5 F5 E   E5         B5 A#5 G5 F5  E   
I lost my life to the Killing road 
 
 
VARIAÇÃO PRO SOLO 
 
E------------------------------ 
B------------------------------ 
G------------------------------ 
D------------------------------ 
A-7-8-5-7-3-5-2-3---2------ 
E---------------------5---3----    
 
BASE DO SOLO 
 
É uma base bem chatinha de ouvir os detalhes 
mas assim está bem perto. 
 
F#     E     F#5    G5 
 
No final do solo a base para em F# e há três ?ataques? em F#, 1 em G5 e volta para E 
 
 Qualquer dúvida, sugestão ou idéia é muito bem vinda. 
 
       Contate com Eduardo Marmitt 
mustangv8@pdh.com.br 
 
 
? = Abafar 
/ = Slide 
 
 
_______________________________________________________ 
Contribuição: Eduardo Marmitt(mustangv8@pdh.com.br) 

	  

Solicitar el vídeo de "The Killing Road" - Descargar The Killing Road mp3

No existe una video leccione para esta canción

solicitar
Aumentar uno tonoAumentar uno tono
Aumentar uno semi-tonoAumentar uno semi-tono
Disminuir uno semi-tonoDisminuir uno semi-tono
Disminuir uno tonoDisminuir uno semi-tono
140

Envie sus comentários.

0 comentários

 
LosAcordes
Buscar
auto avanzar rasgueos aumentar disminuir cambiar color esconder acordes gráficos
losacordes exhibir acordes losacordes youTube video losacordes ocultar tabs losacordes cambiar notación losacordes ir hacia arriba losacordes