A B C D E F G H I J K L M N O P Q R S T U V X Y Z 0-9
Martin Garrix

Início > Martin Gar... > acordes

Martin Garrix

Animals

Dificultad:PrincipiantePrincipiante

por bombaXXX

tuner corregir añadir para songbook version para impresion version de texto version rtf e-mail
acordestablaturabajobateríaarmónicaflautacavacopiano Guitar Pro
acordes

Animals

	  Intro 

E|------------------------------|---------------|-------------------| 
B|-------------4----------------|---------------|-------------------| 
G|-------3--5-----3--3----------|---------------|-------------------| 
D|-6--6-----------------6--5--3-|-5--5--6--6--3-|-5-5-5-5--6--6--3--| 
A|------------------------------|---------------|-------------------| 
D|------------------------------|---------------|-------------------| 

E|------------------------------|---------------|-------------------| 
B|-------------4----------------|---------------|-------------------| 
G|-------3--5-----3--3----------|---------------|-------------------| 
D|-6--6-----------------6--5--3-|-5--5--6--6--3-|-5-5-5-5--6--6--3--| 
A|------------------------------|---------------|-------------------| 
D|------------------------------|---------------|-------------------| 

Pre chorus 

E|-----------------11-|---------------------|---------------------| 
B|---------11--13-----|-11--11--------------|---------------------| 
G|-13--13-------------|---------13--12--10--|--12--12--13--13-10--| 
D|--------------------|---------------------|---------------------| 
A|--------------------|---------------------|---------------------| 
D|--------------------|---------------------|---------------------| 

E|-----------------11-|---------------------|---------------------| 
B|---------11--13-----|-11--11--------------|---------------------| 
G|-13--13-------------|---------13--12--10--|--12--12--13--13-10--| 
D|--------------------|---------------------|---------------------| 
A|--------------------|---------------------|---------------------| 
D|--------------------|---------------------|---------------------| 

E|--------------------------| 
B|--------------------------| 
G|-12-12-12-12--13--13--10--| 
D|--------------------------| 
A|--------------------------| 
D|--------------------------| 

Repetir 6x 

E|-------------------------|--------| 
B|-------------------------|--------| 
G|-------------------------|--------| 
D|-------------------------|----3/--| 
A|--3--3--3----3--4--3--1--|----3/--| 
D|--3--3--3----3--4--3--1--|--------| 
-- 

E|--------------------------------|-----------------------------------| 
B|--------------------------------|-----------------------------------| 
G|--5-5-5-5--3--3--3--------------|--5-5-5-5--3--3--3--6--5-----------| 
D|--------------------6--6--5--5--|----------------------------3------| 
A|--------------------------------|-----------------------------------| 
D|--------------------------------|-----------------------------------| 

E|--------------------------------|--------------------| 
B|--------------------------------|--------------------| 
G|--5-5-5-5--3--3--3--------------|--5-5-5-5--3--3--3--| 
D|--------------------6--6--5--5--|--------------------| 
A|--------------------------------|--------------------| 
D|--------------------------------|--------------------| 


E|--------------------------------|-----------------------------------| 
B|--------------------------------|-----------------------------------| 
G|--5-5-5-5--3--3--3--------------|--5-5-5-5--3--3--3--6--5-----------| 
D|--------------------6--6--5--5--|----------------------------3------| 
A|--------------------------------|-----------------------------------| 
D|--------------------------------|-----------------------------------| 

E|--------------------------------|------------------11---| 
B|--------------------------------|----------11--13-------| 
G|--5-5-5-5--3--3--3--------------|--13--13---------------| 
D|--------------------6--6--5--5--|-----------------------| 
A|--------------------------------|-----------------------| 
D|--------------------------------|-----------------------| 

Pre chorus 

E|-----------------11-|---------------------|---------------------| 
B|---------11--13-----|-11--11--------------|---------------------| 
G|-13--13-------------|---------13--12--10--|--12--12--13--13-10--| 
D|--------------------|---------------------|---------------------| 
A|--------------------|---------------------|---------------------| 
D|--------------------|---------------------|---------------------| 

E|-----------------11-|---------------------|---------------------| 
B|---------11--13-----|-11--11--------------|---------------------| 
G|-13--13-------------|---------13--12--10--|--12--12--13--13-10--| 
D|--------------------|---------------------|---------------------| 
A|--------------------|---------------------|---------------------| 
D|--------------------|---------------------|---------------------| 

E|--------------------------| 
B|--------------------------| 
G|-12-12-12-12--13--13--10--| 
D|--------------------------| 
A|--------------------------| 
D|--------------------------| 


Repetir 6x 

E|-------------------------|--------| 
B|-------------------------|--------| 
G|-------------------------|--------| 
D|-------------------------|----3/--| 
A|--3--3--3----3--4--3--1--|----3/--| 
D|--3--3--3----3--4--3--1--|--------| 
-- 

E|--------------------------------|-----------------------------------| 
B|--------------------------------|-----------------------------------| 
G|--5-5-5-5--3--3--3--------------|--5-5-5-5--3--3--3--6--5-----------| 
D|--------------------6--6--5--5--|----------------------------3------| 
A|--------------------------------|-----------------------------------| 
D|--------------------------------|-----------------------------------| 

E|--------------------------------|--------------------| 
B|--------------------------------|--------------------| 
G|--5-5-5-5--3--3--3--------------|--5-5-5-5--3--3--3--| 
D|--------------------6--6--5--5--|--------------------| 
A|--------------------------------|--------------------| 
D|--------------------------------|--------------------| 


E|--------------------------------|-----------------------------------| 
B|--------------------------------|-----------------------------------| 
G|--5-5-5-5--3--3--3--------------|--5-5-5-5--3--3--3--6--5-----------| 
D|--------------------6--6--5--5--|----------------------------3------| 
A|--------------------------------|-----------------------------------| 
D|--------------------------------|-----------------------------------| 

E|--------------------------------|------------------11---| 
B|--------------------------------|----------11--13-------| 
G|--5-5-5-5--3--3--3--------------|--13--13---------------| 
D|--------------------6--6--5--5--|-----------------------| 
A|--------------------------------|-----------------------| 
D|--------------------------------|-----------------------| 


	  

Solicitar el vídeo de "Animals" - Descargar Animals mp3

No existe una video leccione para esta canción

solicitar
140

Envie sus comentários.

0 comentários

 
LosAcordes
Buscar
auto avanzar rasgueos aumentar disminuir cambiar color esconder acordes gráficos
losacordes exhibir acordes losacordes youTube video losacordes ocultar tabs losacordes cambiar notación losacordes ir hacia arriba losacordes