A B C D E F G H I J K L M N O P Q R S T U V X Y Z 0-9
Martin Garrix

Início > Martin Gar... > acordes

Martin Garrix

Animals

Dificultad:PrincipiantePrincipiante

por bombaXXX

tuner corregir añadir para songbook version para impresion version de texto version rtf e-mail
acordestablaturabajobateríaarmónicaflautacavacopiano Guitar Pro
acordes

Animals

	  
E|------------------------------------------------------------| 
B|--9-9---11--13--16--11-11--9--8--6--------------------------| 
G|------------------------------------------------------------| 
D|------------------------------------------------------------| 
A|------------------------------------------------------------| 
E|------------------------------------------------------------| 


E|------------------------------------------------------------| 
B|---8-8--9-9---6---------------------------------------------| 
G|------------------------------------------------------------| 
D|------------------------------------------------------------| 
A|------------------------------------------------------------| 
E|------------------------------------------------------------| 

E|------------------------------------------------------------| 
B|-----6-6-6-6----4-4-4-4-------2--2----1--1------------------| 
G|------------------------------------------------------------| 
D|------------------------------------------------------------| 
A|------------------------------------------------------------| 
E|------------------------------------------------------------| 

E|------------------------------------------------------------| 
B|-----6-6-6-6----4-4-4-4---7-6-------------------------------| 
G|------------------------------------------------------------| 
D|------------------------------------------------------------| 
A|------------------------------------------------------------| 
E|------------------------------------------------------------| 
	  

Solicitar el vídeo de "Animals" - Descargar Animals mp3

No existe una video leccione para esta canción

solicitar
140

Envie sus comentários.

0 comentários

 
LosAcordes
Buscar
auto avanzar rasgueos aumentar disminuir cambiar color esconder acordes gráficos
losacordes exhibir acordes losacordes youTube video losacordes ocultar tabs losacordes cambiar notación losacordes ir hacia arriba losacordes