Manolo Escobar

Início > Manolo Esc... > acordes

El Porompompero Tablatura

Manolo Escobar

Dificultad:Ningún gradoNingún grado

por victborges

tuner correct add songbook print version text version salvar en e-mail
acordesukuleletablaturabajobateríaarmónicaflautacavacopiano Guitar Pro
acordes

El Porompompero

	  
e|-0-5-7-8-7-5-0----0-5-7-8-7-5-7----0-3-5/7-5-3-5-3-1-3-1-1-1p0-------------| 
B|---------------------------------------------------------------------------| 
G|---------------------------------------------------------------------------| 
D|---------------------------------------------------------------------------| 
A|---------------------------------------------------------------------------| 
E|---------------------------------------------------------------------------| 

e|-0-5-7-8-7-5-0-----0-----0-3-5-5/7-5-3-5-----3-----0-1-3-3/5-3-1-3-1-1-3-1-1-1p0-----0----0-0-| 
B|-------------------1-------------------------0---------------------------------------0----0-0-| 
G|-------------------2-------------------------0---------------------------------------2----2-2-| 
D|-------------------2-------------------------0---------------------------------------3----3-3-| 
A|-------------------0-------------------------2---------------------------------------3----3-3-| 
E|-------------------0-------------------------3---------------------------------------0----0-0-| 

e|-3p1p0-----0-------------0------------0------------0---------------------3----| 
B|-----------0---------0-1--1-3-1-0-----1--------0-1---1-3-1-0--3p1p0------0----| 
G|-----------1-------2------------------2------2---------------------------0----| 
D|-----------2--------------------------2----------------------------------0----| 
A|-----------2--------------------------0----------------------------------2----| 
E|-----------0--------------------------0----------------------------------3----| 

e|-0-1-3-1-1h3p1----------------------------------------------------------| 
B|---------------3-1-0h1p0---1-0-0h1p0--------------------1-0-------------| 
G|-------------------------2-----------2-1--------------------------------| 
D|-----------------------------------------2-1--1/2-----2-----------------| 
A|------------------------------------------------------------------------| 
E|------------------------------------------------------------------------| 

e|-0-0-0-0-0-0--0-0-0-0-0-0--0-0-0-0-0-0--0-0-0-0-0-0------------------------------------------| 
B|-1-1-1-1-0-1--1-1-1-1-0-1--1-1-1-1-0-1--1-1-1-1-0-1------------------------------------------| 
G|-2-2-2-2-2-2--2-2-2-2-2-2--2-2-2-2-2-2--2-2-2-2-2-2------------------------------------------| 
D|-2-2-2-2-2-2--2-2-2-2-2-2--2-2-2-2-2-2--2-2-2-2-2-2------------------------------------------| 
A|-0-0-0-0-0-0--0-0-0-0-0-0--0-0-0-0-0-0--0-0-0-0-0-0------------------------------------------| 
E|---------------------------------------------------------------------------------------------| 

e|-3-3-3-3-3-3--3-3-3-3-3-3--3-3-3-3-3-3--3-3-3------------------------------------------------| 
B|-0-0-0-0-0-0--0-0-0-0-0-0--0-0-0-0-0-0--0-0-0------------------------------------------------| 
G|-0-0-0-0-0-0--0-0-0-0-0-0--0-0-0-0-0-0--0-0-0------------------------------------------------| 
D|-0-0-0-0-0-0--2-2-2-2-2-2--0-0-0-0-0-0--0-0-2------------------------------------------------| 
A|-2-2-2-2-2-2--0-0-0-0-0-0--2-2-2-2-2-2--0-0-0------------------------------------------------| 
E|-3-3-3-3-3-3--3-3-3-3-3-3--3-3-3-3-3-3--3-3-3------------------------------------------------| 

e|-0-0-0-0-0-0--0-0-0-0-0-0--0-0-0-0-0-0--0-----------------------------------------------------| 
B|-1-1-1-1-0-1--1-1-1-1-0-1--1-1-1-1-0-1--1-----------------------------------------------------| 
G|-2-2-2-2-2-2--2-2-2-2-2-2--2-2-2-2-2-2--2-----------------------------------------------------| 
D|-3-3-3-3-3-3--3-3-3-3-3-3--3-3-3-3-3-3--3-----------------------------------------------------| 
A|-3-3-3-3-3-3--3-3-3-3-3-3--3-3-3-3-3-3--3-----------------------------------------------------| 
E|-0-0-0-0-0-0--0-0-0-0-0-0--0-0-0-0-0-0--0-----------------------------------------------------| 

e|-0-0-0-0-0-0--0-0-0-0-0-0--0-0-0-0-0-0--0-0-0-0-0-0--0-0-0-0-0--------------------------------| 
B|-0-0-0-0-0-0--0-0-0-0-0-0--0-0-0-0-0-0--0-0-0-0-0-0--0-0-0-0-0-----------1-0------------------| 
G|-1-1-1-1-1-1--2-2-2-2-2-2--4-4-4-4-4-4--2-2-2-2-2-2--1-1-4-4-2--------------------------------| 
D|-2-2-2-2-2-2--3-3-3-3-3-3--5-5-5-5-5-5--3-3-3-3-3-3--2-2-4-4-2--------------------------------| 
A|-2-2-2-2-2-2--3-3-3-3-3-3--5-5-5-5-5-5--3-3-3-3-3-3--2-2-5-5-4---------2----------------------| 
E|-0-0-0-0-0-0--0-0-0-0-0-0--0-0-0-0-0-0--0-0-0-0-0-0--0-0-0-0-0--------------------------------| 

e|-0-----2-----0---0-0-0-0-0-----0---0-0-0---0-----0---0-0-0-------0----------0---0---0X-------| 
B|-1-----3-----1-----------------1---------1-------0---------0---0------------0---0---0X-------| 
G|-2-----2-----2-----------------0-----------------0-----------0--------------1---1---1X-------| 
D|-2-----0-----3-----------------2-----------------1--------------------------2---2---2X-------| 
A|-0-----0-----3-----------------3-----------------2--------------------------2---2---2X-------| 
E|-0-----0-----0-----------------3-----------------2---------------------0-0--0---0---0X-------| 






*********************************** 
| /   slide up 
| \   slide down 
| h   hammer-on 
| p   pull-off 
| ~   vibrato 
| +   harmonic 
| x   Mute note 
| b   Bend 
| pb  Pre-bend 
| br  Bend release 
| pbr Pre-bend release 
| brb Bend release bend 

************************************ 
	  

No existe una video leccione para esta canción

request
LosAcordes
Buscar
auto avanzar rasgueos aumentar disminuir cambiar color esconder acordes gráficos
losacordes exhibir acordes losacordes youTube video losacordes ocultar tabs losacordes ir hacia arriba losacordes