A B C D E F G H I J K L M N O P Q R S T U V X Y Z 0-9
Maná

Início > Maná > acordes

Maná

Hundido en un Rincón

Dificultad:FácilFácil

por europeu

tuner corregir añadir para songbook version para impresion version de texto version rtf e-mail
acordestablaturabajobateríaarmónicaflautacavacopiano Guitar Pro
acordes

Hundido en un Rincón

Áño: 1995 - Álbum: Cuando Los Angeles Lloran

	   F#m          E              D             E 
Lead guitar 
|-----5-4-----|-------------|-------------|-------------| 
|---------7---|-----------5-|-5-7---------|-------------| 
|-----------6-|-4-----------|-----7-6-----|7\6-4------4-| 
|-6-----------|-------------|-------------|---------7---| 
|-------------|-------------|-------------|-------------| 
|-------------|-------------|-------------|-------------| 


  F#m          E              D             E 
|-----5-4-----|-------------|-------------|-------------|----| 
|---------7---|-----------5-|-5-----------|-------------|----| 
|-----------6-|-4-----------|----------7--|7\6-4------4-|4/6-| 
|4/6----------|-------------|-----7-7-----|---------7---|----| 
|-------------|-------------|-------------|-------------|----| 
|-------------|-------------|-------------|-------------|----| 

Verse 1: 

F#m         E           Bm 
Te escribo en un rincón 

       E                    F#m 
donde siempre me has tenido 

                E 
|-------------|-------------| 
|---------5-7-|-7-----------| 
|-------7-----|-------------| 
|-------------|-------------| 
|-------------|-------------| 
|-------------|-------------| 

       D 
en soledad 
             E 
|-------------|-------------|----| 
|---------5-7-|-7-5---------|----| 
|-------7-----|--------4-2-4|-/6-| 
|-------------|-------------|----| 
|-------------|-------------|----| 
|-------------|-------------|----| 

F#m        E         Bm 
Hundido en un rincón 
     E                 F#m 
entre polvo y el olvido 

            E                D           E 
|----5-5-5-5--|4h5-4-4-4-5-7|-------------|-------------| 
|-------------|-------------|5/7--------7-|7\5-5-5\3-3-3| 
|-------------|-------------|-------------|-------------| 
|-------------|-------------|-------------|-------------| 
|-------------|-------------|-------------|-------------| 
|-------------|-------------|-------------|-------------| 

PreChorus: 

  A             E             Bm            E 
Te       dejo   esta  carta,         buscando  fin a este 
|-5-------5---|-4------4----|-7------7----|-7-------7---| 
|---5-------5-|---5------5--|---7------7--|---5-------5-| 
|-----6-------|-----4-------|-----7-------|-----4-------| 
|-------------|-------------|-------------|-------------| 
|-------------|-------------|-------------|-------------| 
|-------------|-------------|-------------|-------------| 
  A             E             Bm            E 
dolor.         Ohhhh 

|-5-------5---|-4------4----|-7------7----|-------------|---| 
|---5-------5-|---5------5--|---7------7--|--5-5-7-7-5-3|-2-| 
|-----6-------|-----4-------|-----7-------|-4-----------|---| 
|-------------|-------------|-------------|2------------|---| 
|-------------|-------------|-------------|-------------|---| 
|-------------|-------------|-------------|-------------|---| 

  A             E             Bm            E 
Siento   que   estoy  muriendo,      pero no podría 
|-5-------5---|-4------4----|-7------7----|-7-------7---| 
|---5-------5-|---5------5--|---7------7--|---5-------5-| 
|-----6-------|-----4-------|-----7-------|-----4-------| 
|-------------|-------------|-------------|-------------| 
|-------------|-------------|-------------|-------------| 
|-------------|-------------|-------------|-------------| 

  A             E             Bm            E 
  vivir,             más asi 
|-5-------5---|-4------4----|-7------7----|-7-------7---| 
|---5-------5-|---5------5--|---7------7--|---5-------5-| 
|-----6-------|-----4-------|-----7-------|-----4-------| 
|-------------|-------------|-------------|-------------| 
|-------------|-------------|-------------|-------------| 
|-------------|-------------|-------------|-------------| 

F#m            E             D             E 
     Te escribo en un rincón... 
|2----4-5-----|-------4-5-7-|-2-----------|-------------| 
|2--------7---|-------------|-3---3-2-0---|-------------| 
|2----------6-|-4-----------|-2---------2-|-------------| 
|4------------|-------------|-0-----------|-------------| 
|4------------|-------------|-------------|-------------| 
|2------------|-------------|-------------|-------------| 

Chorus: 
A              E             Bm            E 
¡Ay!,              pobre de mi 
|-------------|-------------|-------------|-------------| 
|-------------|-------------|-------------|-------------| 
|-2-----------|-9-----------|-4-----------|-9-9-9--/x\--| 
|-2-----------|-9-----------|-4-----------|-9-9-9--/x\--| 
|-0-----------|-7-----------|-2-----------|-7-7-7-------| 
|-------------|-0-----------|-------------|-------------| 

A              E             F#m           E 
solo,            en un rincón 
|-------------|-------------|-------------|-------------| 
|-------------|-------------|-------10----|---------| 
|-2-----------|-9-----------|-11-11---11--|---4br-2----2| 
|-2-----------|-9-----------|-11--------11|-9-------4-2-| 
|-0-----------|-7-----------|-9-----------|-------------| 
|-------------|-0-----------|-------------|-------------| 

A              E             Bm            E 
¡Ay!,             pobre de mi 
|-------------|-------------|-------------|-------------| 
|-------------|-------------|-------------|-------------| 
|-2-----------|-9-----------|-4-----------|-9-9-9--/x\--| 
|-2-----------|-9-----------|-4-----------|-9-9-9--/x\--| 
|-0-----------|-7-----------|-2-----------|-7-7-7-------| 
|-------------|-0-----------|-------------|-------------| 

A              E             F#m           E 
solo,        el corazón      hundido       en un rincón. 
|-------------|-------------|-------------|-------------| 
|-------------|-------------|-------10----|-------------| 
|-2-----------|-9-----------|-11-11---11--|---9---------| 
|-2-----------|-9-----------|-11--------11|-9-----------| 
|-0-----------|-7-----------|-9-----------|-7-----------| 
|-------------|-0-----------|-------------|-------------| 

(Play intro again) 
This actually can be a third guitar, doing a fifth power chords, with the first line of  
In the top, acoustic guitar chords. 
F#m          E              D             E 
|-------------|-------------|-------------|-------------| 
|-------------|-------------|-------------|-------------| 
|-------------|-------------|-------------|-------------| 
|-4-----------|-2-----------|-------------|-------------| 
|-4-----------|-2-----------|-------------|-------------| 
|-2-----------|-0-----------|-------------|-------------| 

|-----5-4-----|-------------|-------------|-------------| 
|---------7---|-----------5-|-5-7---------|-------------| 
|-----------6-|-4-----------|-----7-6-----|7\6-4------4-| 
|-6-----------|-------------|-------------|---------7---| 
|-------------|-------------|-------------|-------------| 
|-------------|-------------|-------------|-------------| 

F#m          E              D             E 
|-----5-4-----|-------------|-------------|-------------| 
|---------7---|-----------5-|-5-----------|-------------| 
|-----------6-|-4-----------|----------7--|7\6-4------4-| 
|4/6----------|-------------|-----7-7-----|---------7---| 
|-------------|-------------|-------------|-------------| 
|-------------|-------------|-------------|-------------| 

Verse 2: 
  F#m          E              Bm            E                             Te fuiste    
                 entre mis manos 
|-----5-4-----|-------------|---------2---|-----------0-| 
|---------7---|-------------|-------2---3-|-----2-------| 
|--2--------6-|-4-----------|-----4-------|---4-----4---| 
|-4-----------|-------------|---4---------|-2-----2-----| 
|4------------|-------------|-------------|-------------| 
|-------------|-------------|-------------|-------------| 

  F#m          E              D             E 
y mis sueños               y los años,   muchos años que 
|-----5-4-----|---------0---|-2-2-4-2-2---|-------0-----| 
|---------7---|-------2-----|--0-----0----|----2--------| 
|--2--------6-|-4---4-------|-------------|--4----------| 
|-4-----------|-------------|-------------|-------------| 
|4------------|-------------|-------------|-------------| 
|-------------|-------------|-------------|-------------| 

  me tuviste 
|-----9-7-5-4-|-------------|-------------|-------------| 
|-------------|-5-----------|-------------|-------------| 
|-------------|-------------|-------------|-------------| 
|-------------|-------------|-------------|-------------| 
|-------------|-------------|-------------|-------------| 
|-------------|-------------|-------------|-------------| 
  F#m          E              Bm            E 
que me dejaste              hundido en soledad. 
|-----5-4-----|-------0-----|-------2---0-|--------0----| 
|---------7---|----2--------|-----3---3---|---0---------| 
|-----------6-|-4-----------|---4---------|-4---4-------| 
|-6-----------|-------------|-4-----------|-------------| 
|-------------|-------------|-------------|-------------| 
|-------------|-------------|-------------|-------------| 

|-----9-7-5-4-| 
|-------------| 
|-------------| 
|-------------| 
|-------------| 
|-------------| 

 F#m          E              D             E 

|-----5-4-----|---------0---|-2-2-4-2-2---|-----0-------| 
|---------7---|-------2-----|--0-----0----|---0----0----| 
|--2--------6-|-4---4-------|-------------|--1-1-1---1-2| 
|-4-----------|-------------|-------------|-2-----------| 
|4------------|-------------|-------------|-------------| 
|-------------|-------------|-------------|-------------| 

PreChorus: 

  A             E             Bm            E 
 Siento el     aire espeso                 ya ni puedo respirar 
|-5-------5---|-4------4----|-7------7----|-7-------7---| 
|---5-------5-|---5------5--|---7------7--|---5-------5-| 
|-----6-------|-----4-------|-----7-------|-----4-------| 
|-------------|-------------|-------------|-------------| 
|-------------|-------------|-------------|-------------| 
|-------------|-------------|-------------|-------------| 

  A             E             Bm            E 

|-5-------5---|-4------4----|-7------7----|-----------------| 
|---5-------5-|---5------5--|---7------7--|--5-5-7-7-5-3--2-| 
|-----6-------|-----4-------|-----7-------|-4---------------| 
|-------------|-------------|-------------|2----------------| 
|-------------|-------------|-------------|-----------------| 
|-------------|-------------|-------------|-----------------| 

  A             E             Bm            E 
Me dueles hasta el hueso     mientras intento esta canción 
|-5-------5---|-4------4----|-7------7----|-7-------7---| 
|---5-------5-|---5------5--|---7------7--|---5-------5-| 
|-----6-------|-----4-------|-----7-------|-----4-------| 
|-------------|-------------|-------------|-------------| 
|-------------|-------------|-------------|-------------| 
|-------------|-------------|-------------|-------------| 

  A             C#7           F#m           D 
hundido en un rincón. 
|-5-------5---|-----4-------|-2-----------| 
|---5-------5-|-------6-----|---2---------| Kick with electric guitar 
|-----6-------|--------4----|-----2-------| the chord D.Just Distortion. 
|-------------|---------6---|-------------| 
|-------------|-------------|-------------| 
|-------------|-------------|-------------| 

Chorus: 
A              E             Bm            E 
¡Ay!,              pobre de mi 
|-------------|-------------|-------------|-------------| 
|-------------|-------------|-------------|-------------| 
|-2-----------|-9-----------|-4-----------|-9-9-9--/x\--| 
|-2-----------|-9-----------|-4-----------|-9-9-9--/x\--| 
|-0-----------|-7-----------|-2-----------|-7-7-7-------| 
|-------------|-0-----------|-------------|-------------| 

A              E             F#m           E 
solo,            en un rincón 
|-------------|-------------|-------------|-------------| 
|-------------|-------------|-------10----|---------| 
|-2-----------|-9-----------|-11-11---11--|---4br-2----2| 
|-2-----------|-9-----------|-11--------11|-9-------4-2-| 
|-0-----------|-7-----------|-9-----------|-------------| 
|-------------|-0-----------|-------------|-------------| 

A              E             Bm            E 
¡Ay!,             pobre de mi 
|-------------|-------------|-------------|-------------| 
|-------------|-------------|-------------|-------------| 
|-2-----------|-9-----------|-4-----------|-9-9-9--/x\--| 
|-2-----------|-9-----------|-4-----------|-9-9-9--/x\--| 
|-0-----------|-7-----------|-2-----------|-7-7-7-------| 
|-------------|-0-----------|-------------|-------------| 

A              E             F#m           E 
solo,        el corazón      hundido       en un rincón. 
|-------------|-------------|-------------|-------------| 
|-------------|-------------|-------10----|-------------| 
|-2-----------|-9-----------|-11-11---11--|---9---------| 
|-2-----------|-9-----------|-11--------11|-9-----------| 
|-0-----------|-7-----------|-9-----------|-7-----------| 
|-------------|-0-----------|-------------|-------------| 

Interval: 
  D             E             F#m  C#m      E            A   E    D 
Y hundido,    y ahogado el corazón     en un rincón 
|-------------|-------------|-5--5-4------|-4-------------| 
|-------------|-------------|-7--7-5------|-5-------------| 
|-7-----------|-9-----------|-------------|-------2---2---| 
|-7-----------|-9-----------|-------------|------2-2-2-2--| 
|-5-----------|-7-----------|-------------|------0-2-0-2--| 
|-------------|-------------|-------------|--------0---0--| 


  D             E             F#m     C#m       E    D 
Y hundido,      y ahogado el corazón 
|-------------|-------------|-5--5-4------|-4---4-7-5-4-----------| 
|-------------|-------------|-7--7-5------|-5-----------5------/5-| 
|-7-----------|-9-----------|-------------|--------------/6\4-2--6| 
|-7-----------|-9-----------|-------------|-----------------------| 
|-5-----------|-7-----------|-------------|-----------------------| 
|-------------|-------------|-------------|-----------------------| 


Chorus: 
  A             E             Bm            E 
 ¡Ay!           De mi. 
|-5-----5-----|-4-----4-----|-7-----7-----|-7-----7-----| 
|---5-------5-|---5-------5-|---7-------7-|---5-------5-| 
|-----6-------|-----4-------|-----7-------|-----4-------| 
|-------------|-------------|-------------|-------------| 
|-------------|-------------|-------------|-------------| 
|-------------|-------------|-------------|-------------| 

  A             E             F#m           E 
Solo           yo aquí      hundido en un rincón 
|-5-----5-----|-4-----4-----|-5-----5-----|-7-----7-----| 
|---5-------5-|---5-------5-|---5-------5-|---7-----7---| 
|-----6-------|-----4-------|-----2-------|-----4-------| 
|-------------|-------------|-------------|-------------| 
|-------------|-------------|-------------|-------------| 
|-------------|-------------|-------------|-------------| 

Intro: 

  F#m          E              D             E 
|-----5-4-----|-------------|-------------|-------------| 
|---------7---|-----------5-|-5-7---------|-------------| 
|-----------6-|-4-----------|-----7-6-----|7\6-4------4-| 
|-6-----------|-------------|-------------|---------7---| 
|-------------|-------------|-------------|-------------| 
|-------------|-------------|-------------|-------------| 

  F#m          E              D             C# 
|-----5-4-----|-------------|-------------|-------------| 
|---------7---|-------------|-------------|-------------| 
|-----------6-|-4------4h5p4|\2-----4h5p4\|\1-----------| 
|4/6----------|-------------|-------------|-------------| 
|-------------|-------------|-------------|-------------| 
|-------------|-------------|-------------|-------------| 


Solo: 
 F#m            E             D             E 
|------5------|-------------|----------7br|-------------| 
|-5brb--------|b5rb------5br|--2----------|-------------| 
|-------------|-------------|----4br-2----|---------2-4-| 
|-------------|-------------|-------------|-------------| 
|-------------|-------------|-------------|-------------| 
|-------------|-------------|-------------|-------------| 

F#m            E             D             C# 
|-------------|-------------|---5-7-7-5-7-|-7brp5-7br\--| 
|-------------|-------------|--5----------|-------------| 
|-4brp2-------|6~~~~\-------|/6-----------|-------------| 
|-------4-----|7~~~~\-------|-------------|-------------| 
|-------------|-------------|-------------|-------------| 
|-------------|-------------|-------------|-------------| 

F#m            E             D             E 
      Uhh yeah Uhh yeah,          oh no   cuanta soledad... 
|-------------|-------------|-------------|-------------| 
|-------------|-------------|-------------|-------------| 
|x--x---x--x--|-x-----9~~~~\|-------------|-x-----9~~~~\| 
|x--x---x--x--|-x-----9~~~~\|-------------|-x-----9~~~~\| 
|-------------|-------------|-------------|-------------| 
|-------------|-------------|-------------|-------------| 

F#m                                    E 
|-------14h17-14----14-----------|14-17-14--14-------------| 
|-14h17----------17----17b--14-17|--------17--17b-----14h17| 
|--------------------------------|-------------------------| 
|--------------------------------|-------------------------| 
|--------------------------------|-------------------------| 
|--------------------------------|-------------------------| 

  D 
|14h17-14----14-------------14-17-14--14---14---------------------| 
|---------17----17b---14-17---------17--17b--17-14-------14-17-14-| 
|-------------------------------------------------17-16-----------| 
|-----------------------------------------------------------------| 
|-----------------------------------------------------------------| 
|-----------------------------------------------------------------| 

  C#                   F#m           E            D    E 
                       Uhh yeah Uhh yeah, oh no cuanta soledad.. 
|--------------------|-------------|------------|----|-----------| 
|--------------------|-------------|------------|----|-----------| 
|17-16-14----16b-----|x--x---x--x--|-x----9~~~~\|----|-x---9~~~~\| 
|--------16----------|x--x---x--x--|-x----9~~~~\|----|-x---9~~~~\| 
|--------------------|-------------|------------|----|-----------| 
|--------------------|-------------|------------|----|-----------| 

  F#m 
|-------12-10-9----10-9--------| 
|-10/12---------12------12-10--| 
|------------------------------| 
|------------------------------| 
|------------------------------| 
|------------------------------| 

  E                                              D             C# 
|-9----------------------------------------|-------------|-----| 
|---12-10-9---------9h10p9-----------------|-------------|-----| 
|-----------11-9-11--------11-9------------|-------------|-----| 
|-------------------------------12-11-9----|-------------|-----| 
|---------------------------------------12-|-9-----11h12-|-8---| 
|------------------------------------------|-------------|-----| 

F#m            E             D             E 
oh-oh-oooooooooooooooooooooh              oh oh oh oh 
|-------------|-------------|-------------|-------------| 
|-------------|-------------|-------------|-------------| 
|x--x---x--x--|-x-----9~~~~\|-------------|-x----9~~~~\-| 
|x--x---x--x--|-x-----9~~~~\|-------------|-x----9~~~~\-| 
|-------------|-------------|-------------|-------------| 
|-------------|-------------|-------------|-------------| 

  F#m                    E 
|----------------------|----------------12---------| 
|-12br------12br---12b-|r(12)-12br-12br----12brp10-| 
|-11br-----------------|---------------------------| 
|----------------------|---------------------------| 
|Then a efect like Ah!-|---------------------------| 
|----------------------|---------------------------| 

  D                     C# 
|---------------------|-----17------------------| 
|---------------------|-------17----------------| 
|-12---(12)b----14-16-|-16b------16br--14-16----| 
|---------------------|---------------------16--| 
|---------------------|-------------------------| 
|---------------------|-------------------------| 

F#m            E             D             E 
oh-oh-oh  oh oh oh oh oh oh oh oh oh ... 
|-------------|-------------|-------------|-------------| 
|-------------|-------------|-------------|-------------| 
|x--x---x--x--|-x-----9~~~~\|-------------|-x-----9~~~~\| 
|x--x---x--x--|-x-----9~~~~\|-------------|-x-----9~~~~\| 
|-------------|-------------|-------------|-------------| 
|-------------|-------------|-------------|-------------| 

  F#m 
|--------------------------------------------| 
|-----------------14h15p14-------------------| 
|-------14--14h16----------16-14-------16----| 
|-14h16--------------------------14/16----16-| 
|--------------------------------------------| 
|--------------------------------------------| 

  E                                     D              C# 
|-------------------------------------|----------|------------| 
|--------------------------10-------9\|\7--------|------------| 
|14--------------------/11----14\13---|---11\9-7-|-4-7-9------| 
|---16-14-----------------------------|----------|--------/9--| 
|---------16-15-14-12-----------------|----------|------------| 
|-------------------------------------|----------|------------| 

  F#m                E 
|------------------|------------------------| 
|------------------|---------------10----10-| 
|------------------|----9-11-11-------11----| 
|-6-7-9----------9-|-11---------------------| 
|-------9---9-11---|------------------------| 
|------------------|------------------------| 

  D 
|--------------------------------| 
|12br-10---12brp10----12brp10----| 
|-------11---------11---------11-| 
|--------------------------------| 
|--------------------------------| 
|--------------------------------| 

  E                                       F#m 
|---------------------------------------|-----14---14----14h17-| 
|---10-12brp10----12brp10----12brp10----|17br----17b--17b------| 
|-11-----------11---------11---------11-|----------------------| 
|---------------------------------------|----------------------| 
|---------------------------------------|----------------------| 
|---------------------------------------|----------------------| 

  E 
   T           T 
|-19p17p14-h17h19p17p14-h17h19p17p14-20p17p14-20p17p14-20p17p14-20p-| 
|-------------------------------------------------------------------| 
|-------------------------------------------------------------------| 
|-------------------------------------------------------------------| 
|-------------------------------------------------------------------| 
|-------------------------------------------------------------------| 

  C# 
|-20p17p14-20p17p14-20p17p14-20p17p14-20p17p14-20p17p14-| 
|-------------------------------------------------------| 
|-------------------------------------------------------| 
|-------------------------------------------------------| 
|-------------------------------------------------------| 
|-------------------------------------------------------| 


	  

Solicitar el vídeo de "Hundido en un Rincón" - Descargar Hundido en un Rincón mp3

No existe una video leccione para esta canción

solicitar
Aumentar uno tonoAumentar uno tono
Aumentar uno semi-tonoAumentar uno semi-tono
Disminuir uno semi-tonoDisminuir uno semi-tono
Disminuir uno tonoDisminuir uno semi-tono
140

Envie sus comentários.

0 comentários

 
LosAcordes
Buscar
auto avanzar rasgueos aumentar disminuir cambiar color esconder acordes gráficos
losacordes exhibir acordes losacordes youTube video losacordes ocultar tabs losacordes cambiar notación losacordes ir hacia arriba losacordes