Los Fabulosos Cadillacs

Início > Los Fabulo... > acordes

Padre Nuestro Tablatura

Los Fabulosos Cadillacs

Dificultad:Ningún gradoNingún grado

por sabrjoao

tuner correct add songbook print version text version salvar en e-mail
acordesukuleletablaturabajobateríaarmónicaflautacavacopiano Guitar Pro
acordes

Padre Nuestro

	  10-3-3-3-3-3-3--3-2------- 
2-------------------3-3/5- 
3-------------------------   x2 
4------------------------- 
5------------------------- 
6------------------------- 

112-15-15-15-15-15-15--15-14---------- 
2----------------------------15-15/18- 
3-------------------------------------   x2 
4------------------------------------- 
5------------------------------------- 
6------------------------------------- 

En la repetición de la 2º parte de la canción, al tocar el espacio 18 hacer un vibrato (~) 
	  

No existe una video leccione para esta canción

request
LosAcordes
Buscar
auto avanzar rasgueos aumentar disminuir cambiar color esconder acordes gráficos
losacordes exhibir acordes losacordes youTube video losacordes ocultar tabs losacordes ir hacia arriba losacordes