A B C D E F G H I J K L M N O P Q R S T U V X Y Z 0-9
Los Bunkers

Início > Los Bunker... > acordes

Los Bunkers

Mientele

Dificultad:FácilFácil

por diego=p

tuner corregir añadir para songbook version para impresion version de texto version rtf e-mail
acordestablaturabajobateríaarmónicaflautacavacopiano Guitar Pro
acordes

Mientele

Tono:  Gm Más
Mientele Tono C#mC#m
Mientele Tono DmDm
Mientele Tono D#mD#m
Mientele Tono EmEm
Mientele Tono FmFm(Disminuir uno tono)
Mientele Tono F#mF#m(Disminuir uno semi-tono)
Mientele Tono GmGm(tono original)
Mientele Tono G#mG#m(Aumentar uno semi-tono)
Mientele Tono AmAm(Aumentar uno tono)
Mientele Tono A#mA#m
Mientele Tono BmBm
Mientele Tono CmCm
	     Gm              D# 
e--------------------------- 
b--7-7-7-7h8-7-5------------    x2 vezez 
g----------------8---5-7-8-- 
d------------------6-------- 
a--------------------------- 
E--------------------------- 
 
   Gm          D#            A#             D 
e------3-5-3--------3-5-3-------------------------------- 
b----3-------3----4-------4-------3-4-3---------1-3-3-3-- 
g-------------------------------3-------3-----2---------- 
d--------------(1)-------------------------(0)----------- 
a----------------------------(1)------------------------- 
E-(3)---------------------------------------------------- 
Laz notaz entre paréntesis zi quieren laz tocan 
 
 
Gm                  D# 
Haciendo fila bajo el sol 
Gm                      D# 
perdiendo todo el tiempo sin razón 
Gm          D#                    A#    D 
me encuentras tú sin nada entre las manos 
 
Gm                 D# 
No tienes nada que decir 
Gm                       D# 
pues cada cual tiene su precio aquí 
Gm                  D# 
ya has pagado mucho por mi 
D 
mucho mas de lo que pedí 
 
Eztribillo: 
 
Gm      D# 
Miéntele 
A#                  F      Gm    D# 
no le digas lo que hiciste ayer 
  A#         F 
cuando me viniste a ver 
 
Mientele 
no le digas nunca como fue 
tú sabes como es él 
D#                     D 
seria capaz de hasta matarte por saber 
 
(laz mizmaz notaz de la eztrofa) 
Recuerdo verte caminar 
la frente en alto sin disimular 
te ves tan bien sin nada de verguenza 
 
Él cree que tú eres muy feliz 
no hace otra cosa más que hablar de ti 
dale un beso antes de dormir 
una excusa para vivir 
 
 
Eztribillo: 
 
Miéntele 
no le digas lo que hiciste ayer 
cuando me viniste a ver 
Mientele 
no le digas nunca como fue 
tú sabes como es él 
Déjame ver todas las cosas como ayer ohhh 
Muestrale que no tiene nada que perder 
puede estar contento para siempre 
si no se entera de nosotros otra vez 
 
Zolo: 
 
e-------------------------3---3------------ 
b---------------------------3---3-4p3------ 
g-------------------------------------3-0-- 
d----5-5p3---5-3--------------------------- 
a----------5-----5-3----------------------- 
E--3-----------------6-3------------------- 
 
e----------------------|------------------------- 
b----------------------|------------------------- 
g?6/7-6/7-6/7-8p7------|------------------------- 
d-----------------8-5--|--8-8-8-5-8-8-5-7-5-7-5-- 
a----------------------|------------------------- 
E----------------------|------------------------- 
                     x3 
 
e------------------------------------------------------------- 
b--10---10-8----7h8-8p6--------------------------------------- 
g-----7------7----------5-7-7-5-7-5-7-5----------5---5-8-5-7-- 
d----------------------------------------7-7-7-7---7---------- 
a------------------------------------------------------------- 
E------------------------------------------------------------- 
 
Dezpuez ze toca el estribillo y la ultima parte ze toca arpegiando 
 
En laz zegundaz partez de laz eztrofaz ze toca ezto 
   Gm       D#       Gm        D#     Gm       D# D 
e---------------------------------------------------- 
b---------------------------------------------------- 
g-------------------------------------------------7-- 
d-------------------------------------------------7-- 
a-----------6--5-3------------6/8--6--5--------6--5-- 
E--3--3-5-6--------6-3--3-5-6------------3-5-6------- 

	  

Solicitar el vídeo de "Mientele" - Descargar Mientele mp3

No existe una video leccione para esta canción

solicitar
Aumentar uno tonoAumentar uno tono
Aumentar uno semi-tonoAumentar uno semi-tono
Disminuir uno semi-tonoDisminuir uno semi-tono
Disminuir uno tonoDisminuir uno semi-tono
140

Envie sus comentários.

0 comentários

 
LosAcordes
Buscar
auto avanzar rasgueos aumentar disminuir cambiar color esconder acordes gráficos
losacordes exhibir acordes losacordes youTube video losacordes ocultar tabs losacordes cambiar notación losacordes ir hacia arriba losacordes