A B C D E F G H I J K L M N O P Q R S T U V X Y Z 0-9
Los Autenticos Decadentes

Início > Los Autent... > acordes

Los Autenticos Decadentes

Veni Raquel

Dificultad:FácilFácil

por fernsantana

tuner corregir añadir para songbook version para impresion version de texto version rtf e-mail
acordestablaturabajobateríaarmónicaflautacavacopiano Guitar Pro
acordes

Veni Raquel

(Los Autenticos Decadentes)

	  Hola, esta es una correccion de una tablatura, y si 
encuentran otro error contactenme. 

INTRO 
--------------------------------------------- 
--------------------------------------------- 
--------------------------------------------- 
--2-2-2-2--3-2----------------2--3-2--------- 
---------------3-2-0-0--0-2-3--------3-3-2--- 
--------------------------------------------- 

---------------------------------------------- 
---------------------------------------------- 
---------------------------------------------- 
--0-0-------0-2---------2-2-3-2--------------- 
------3-2-3-------0-2-3---------3-2-0--------- 
---------------------------------------------- 



-------------------------------------------- 
-------------------------------------------- 
-------------------------------------------- 
--2-2-2-2-3-2---------------5--5-3-2-3-2-0-- 
----------------3-0---0-2-3----------------- 
-------------------------------------------- 

----------------------------------------------- 
----------------------------------------------- 
----------------------------------------------- 
--3-0--3-0---2-----2-----2---3-2-0------------- 
-----0-----0---3-0---3-0-----------3-2-0------- 
----------------------------------------------- 



                         Am                     E7 
Ay, cuando la conocí a Raquel se zarandeaba prevocativa 
                                               Am 
Para mirarla de atrás se daba vuelta toda la esquina 
                               A7             Dm 
Yo la quería encarar, ay, pero solo no me animaba 
                       Am              E7                     Am 
Fui hasta el café, busqué a mis amigos y... la encaramos en barra 

       G7                  C 
Vení Raquel, vení con los muchachos 
Vení Raquel, te vas a divertir 
Vení Raquel, vení, no tengas miedo 
Vení Raquel, me vas a hacer feliz 
       Dm                  Am 
Vení Raquel, vení con los muchachos 
           E7                Am 
Ay, que te vas, te vas a divertir 


SOLO 
--------------------------------------------- 
--------------------------------------------- 
--------------------------------------------- 
--2-2-2-2--3-2----------------2--3-2--------- 
---------------3-2-0-0--0-2-3--------3-3-2--- 
--------------------------------------------- 

---------------------------------------------- 
---------------------------------------------- 
---------------------------------------------- 
--0-0-------0-2---------2-2-3-2--------------- 
------3-2-3-------0-2-3---------3-2-0--------- 
---------------------------------------------- 



-------------------------------------------- 
-------------------------------------------- 
-------------------------------------------- 
--2-2-2-2-3-2---------------5--5-3-2-3-2-0-- 
----------------3-0---0-2-3----------------- 
-------------------------------------------- 

----------------------------------------------- 
----------------------------------------------- 
----------------------------------------------- 
--3-0--3-0---2-----2-----2---3-2-0------------- 
-----0-----0---3-0---3-0-----------3-2-0------- 
----------------------------------------------- 



Ay, cuando la conocí a Raquel se me ponía la piel de gallina 
Para mirarla de atrás se daba vuelta toda la esquina 
Yo la quería encarar, ay, pero solo no me animaba 
Fui hasta el café, busqué a mis amigos y la encaramos en barra 

Vení Raquel, vení con los muchachos 
Vení Raquel, te vas a divertir 
Vení Raquel, vení, no tengas miedo 
Vení Raquel, me vas a hacer feliz 
Vení Raquel, vení con los muchachos 
Ay, que te vas, te vas a divertir 




   Am      E7   Dm     G7     C 
---0---0---0-----1------1-----0--- 
---1---2---3-----3------0-----1--- 
---2---0---1-----2------0-----0--- 
---2---2---0-----0------0-----2--- 
---0---0---2-----0------2-----3--- 
---X---X---0-----0------3-----X--- 


Hugo_dema22
	  

Solicitar el vídeo de "Veni Raquel" - Descargar Veni Raquel mp3

No existe una video leccione para esta canción

solicitar
Aumentar uno tonoAumentar uno tono
Aumentar uno semi-tonoAumentar uno semi-tono
Disminuir uno semi-tonoDisminuir uno semi-tono
Disminuir uno tonoDisminuir uno semi-tono
140

Envie sus comentários.

0 comentários

 
LosAcordes
Buscar
auto avanzar rasgueos aumentar disminuir cambiar color esconder acordes gráficos
losacordes exhibir acordes losacordes youTube video losacordes ocultar tabs losacordes cambiar notación losacordes ir hacia arriba losacordes