A B C D E F G H I J K L M N O P Q R S T U V X Y Z 0-9
Linkin Park

Início > Linkin Par... > acordes

Linkin Park

No more sorrow

Dificultad:ExpertoExperto

por rakinho

tuner corregir añadir para songbook version para impresion version de texto version rtf e-mail
acordestablaturabajobateríaarmónicaflautacavacopiano Guitar Pro
acordes

No more sorrow

Áño: 2007 - Álbum: Minutes To Midnight

	  Brad Delson: 
Mantêm esses licks 

D#|-0---------------------------------------------------------------------------------------------------------------------- 
A#|-5-h-7/8/12-p-10/12/13-p-12--------------------------------------------------------------------------------------------- 
F#|------------------------------------------------------------------------------------------------------------------------ 
C#|------------------------------------------------------------------------------------------------------------------------ 
G#|------------------------------------------------------------------------------------------------------------------------ 
C#|------------------------------------------------------------------------------------------------------------------------ 

Mike Shinoda: 
Mantem essa base 

D#|------------------------------------------------------------------------------------------------------------------------ 
A#|------------------------------------------------------------------------------------------------------------------------ 
F#|------------------------------------------------------------------------------------------------------------------------ 
C#|-2-2-2-2-2-2-2---------------------------------------------------------------------------------------------------------- 
G#|-2-2-2-2-2-2-2---------------------------------------------------------------------------------------------------------- 
C#|-2-2-2-2-2-2-2---------------------------------------------------------------------------------------------------------- 

*Refrão 

Mike Shinoda e Brad Delson: 

D#|------------------------------------------------------------------------------------------------------------------------ 
A#|------------------------------------------------------------------------------------------------------------------------ 
F#|------------------------------------------------------------------------------------------------------------------------ 
C#|-10-10-10-10-10-10-9-9-9-9-9-9-2-2-2-2-2-2-2-2-2-2-2-2------------------------------------------------------------------ 
G#|-10-10-10-10-10-10-9-9-9-9-9-9-2-2-2-2-2-2-2-2-2-2-2-2------------------------------------------------------------------ 
C#|-10-10-10-10-10-10-9-9-9-9-9-9-2-2-2-2-2-2-2-2-2-2-2-2------------------------------------------------------------------ 

D#|------------------------------------------------------------------------------------------------------------------------ 
A#|------------------------------------------------------------------------------------------------------------------------ 
F#|------------------------------------------------------------------------------------------------------------------------ 
C#|-10-10-10-10-10-10-9-9-9-9-9-9-2-2-2-2-2-2-2-2-2-2-2-2------------------------------------------------------------------ 
G#|-10-10-10-10-10-10-9-9-9-9-9-9-2-2-2-2-2-2-2-2-2-2-2-2------------------------------------------------------------------ 
C#|-10-10-10-10-10-10-9-9-9-9-9-9-2-2-2-2-2-2-2-2-2-2-2-2------------------------------------------------------------------ 

D#|------------------------------------------------------------------------------------------------------------------------ 
A#|------------------------------------------------------------------------------------------------------------------------ 
F#|------------------------------------------------------------------------------------------------------------------------ 
C#|-10-10-10-10-10-10-9-9-9-9-9-9-2-2-2-2-2-2-2-2-2-2-2-2-5-5-5-5-5-5-5-5-5-5-5-5-9-9-9-9-9-9-1-1-1-1-1-1------------------ 
G#|-10-10-10-10-10-10-9-9-9-9-9-9-2-2-2-2-2-2-2-2-2-2-2-2-5-5-5-5-5-5-5-5-5-5-5-5-9-9-9-9-9-9-1-1-1-1-1-1------------------ 
C#|-10-10-10-10-10-10-9-9-9-9-9-9-2-2-2-2-2-2-2-2-2-2-2-2-5-5-5-5-5-5-5-5-5-5-5-5-9-9-9-9-9-9-1-1-1-1-1-1------------------ 

*VERSO 

Brad Delson: 
Mantêm esses licks 

D#|-0---------------------------------------------------------------------------------------------------------------------- 
A#|-5-h-7/8/12-p-10/12/13-p-12--------------------------------------------------------------------------------------------- 
F#|------------------------------------------------------------------------------------------------------------------------ 
C#|------------------------------------------------------------------------------------------------------------------------ 
G#|------------------------------------------------------------------------------------------------------------------------ 
C#|------------------------------------------------------------------------------------------------------------------------ 

Mike Shinoda 

D#|------------------------------------------------------------------------------------------------------------------------ 
A#|------------------------------------------------------------------------------------------------------------------------ 
F#|------------------------------------------------------------------------------------------------------------------------ 
C#|-2-2-2-2-2-2-2---2-2-2-2---2-2-2-2-2-2-2-2-2-2-2-2-2---2-2-2-2---------------------------------------------------------- 
G#|-2-2-2-2-2-2-2---2-2-2-2---2-2-2-2-2-2-2-2-2-2-2-2-2---2-2-2-2---------------------------------------------------------- 
C#|-2-2-2-2-2-2-2---2-2-2-2---2-2-2-2-2-2-2-2-2-2-2-2-2---2-2-2-2---------------------------------------------------------- 
(Na terceira vez entra um palm mute e antes do Refrão volta ao normal) 

*Refrão 

Mike Shinoda e Brad Delson 

D#|------------------------------------------------------------------------------------------------------------------------ 
A#|------------------------------------------------------------------------------------------------------------------------ 
F#|------------------------------------------------------------------------------------------------------------------------ 
C#|-10-10-10-10-10-10-9-9-9-9-9-9-2-2-2-2-2-2-2-2-2-2-2-2------------------------------------------------------------------ 
G#|-10-10-10-10-10-10-9-9-9-9-9-9-2-2-2-2-2-2-2-2-2-2-2-2------------------------------------------------------------------ 
C#|-10-10-10-10-10-10-9-9-9-9-9-9-2-2-2-2-2-2-2-2-2-2-2-2------------------------------------------------------------------ 

D#|------------------------------------------------------------------------------------------------------------------------ 
A#|------------------------------------------------------------------------------------------------------------------------ 
F#|------------------------------------------------------------------------------------------------------------------------ 
C#|-10-10-10-10-10-10-9-9-9-9-9-9-2-2-2-2-2-2-2-2-2-2-2-2------------------------------------------------------------------ 
G#|-10-10-10-10-10-10-9-9-9-9-9-9-2-2-2-2-2-2-2-2-2-2-2-2------------------------------------------------------------------ 
C#|-10-10-10-10-10-10-9-9-9-9-9-9-2-2-2-2-2-2-2-2-2-2-2-2------------------------------------------------------------------ 

D#|------------------------------------------------------------------------------------------------------------------------ 
A#|------------------------------------------------------------------------------------------------------------------------ 
F#|------------------------------------------------------------------------------------------------------------------------ 
C#|-10-10-10-10-10-10-9-9-9-9-9-9-2-2-2-2-2-2-2-2-2-2-2-2-5-5-5-5-5-5-5-5-5-5-5-5-9-9-9-9-9-9-1-1-1-1-1-1------------------ 
G#|-10-10-10-10-10-10-9-9-9-9-9-9-2-2-2-2-2-2-2-2-2-2-2-2-5-5-5-5-5-5-5-5-5-5-5-5-9-9-9-9-9-9-1-1-1-1-1-1------------------ 
C#|-10-10-10-10-10-10-9-9-9-9-9-9-2-2-2-2-2-2-2-2-2-2-2-2-5-5-5-5-5-5-5-5-5-5-5-5-9-9-9-9-9-9-1-1-1-1-1-1------------------ 

*VERSO 

Brad Delson: 
Mantêm esses licks 

D#|-0---------------------------------------------------------------------------------------------------------------------- 
A#|-5-h-7/8/12-p-10/12/13-p-12--------------------------------------------------------------------------------------------- 
F#|------------------------------------------------------------------------------------------------------------------------ 
C#|------------------------------------------------------------------------------------------------------------------------ 
G#|------------------------------------------------------------------------------------------------------------------------ 
C#|------------------------------------------------------------------------------------------------------------------------ 

Mike Shinoda: 

D#|------------------------------------------------------------------------------------------------------------------------ 
A#|------------------------------------------------------------------------------------------------------------------------ 
F#|------------------------------------------------------------------------------------------------------------------------ 
C#|-2-2-2-2-2-2-2---2-2-2-2---2-2-2-2-2-2-2-2-2-2-2-2-2---2-2-2-2---------------------------------------------------------- 
G#|-2-2-2-2-2-2-2---2-2-2-2---2-2-2-2-2-2-2-2-2-2-2-2-2---2-2-2-2---------------------------------------------------------- 
C#|-2-2-2-2-2-2-2---2-2-2-2---2-2-2-2-2-2-2-2-2-2-2-2-2---2-2-2-2---------------------------------------------------------- 
(Na segunda vez entra um palm mute e antes do Refrão volta ao normal) 

*Refrão 

Mike Shinoda e Brad Delson 

D#|------------------------------------------------------------------------------------------------------------------------ 
A#|------------------------------------------------------------------------------------------------------------------------ 
F#|------------------------------------------------------------------------------------------------------------------------ 
C#|-10-10-10-10-10-10-9-9-9-9-9-9-2-2-2-2-2-2-2-2-2-2-2-2------------------------------------------------------------------ 
G#|-10-10-10-10-10-10-9-9-9-9-9-9-2-2-2-2-2-2-2-2-2-2-2-2------------------------------------------------------------------ 
C#|-10-10-10-10-10-10-9-9-9-9-9-9-2-2-2-2-2-2-2-2-2-2-2-2------------------------------------------------------------------ 

D#|------------------------------------------------------------------------------------------------------------------------ 
A#|------------------------------------------------------------------------------------------------------------------------ 
F#|------------------------------------------------------------------------------------------------------------------------ 
C#|-10-10-10-10-10-10-9-9-9-9-9-9-2-2-2-2-2-2-2-2-2-2-2-2------------------------------------------------------------------ 
G#|-10-10-10-10-10-10-9-9-9-9-9-9-2-2-2-2-2-2-2-2-2-2-2-2------------------------------------------------------------------ 
C#|-10-10-10-10-10-10-9-9-9-9-9-9-2-2-2-2-2-2-2-2-2-2-2-2------------------------------------------------------------------ 

D#|------------------------------------------------------------------------------------------------------------------------ 
A#|------------------------------------------------------------------------------------------------------------------------ 
F#|------------------------------------------------------------------------------------------------------------------------ 
C#|-10-10-10-10-10-10-9-9-9-9-9-9-2-2-2-2-2-2-2-2-2-2-2-2-5-5-5-5-5-5-5-5-5-5-5-5-9-9-9-9-9-9-1-1-1-1-1-1------------------ 
G#|-10-10-10-10-10-10-9-9-9-9-9-9-2-2-2-2-2-2-2-2-2-2-2-2-5-5-5-5-5-5-5-5-5-5-5-5-9-9-9-9-9-9-1-1-1-1-1-1------------------ 
C#|-10-10-10-10-10-10-9-9-9-9-9-9-2-2-2-2-2-2-2-2-2-2-2-2-5-5-5-5-5-5-5-5-5-5-5-5-9-9-9-9-9-9-1-1-1-1-1-1------------------ 

*INTERLÚDIO 

Mike Shinoda e Brad Delson: 

D#|------------------------------------------------------------------------------------------------------------------------ 
A#|------------------------------------------------------------------------------------------------------------------------ 
F#|------------------------------------------------------------------------------------------------------------------------ 
C#|-0-1-0-4-3-0-1-6---0-1-0-4-3-0-1-6---0-1-0-4-3-0-1-6---0-1-0-4-3-0-1-6---0-1-0-4-3-0-1-3-------------------------------- 
G#|-0-1-0-4-3-0-1-6---0-1-0-4-3-0-1-6---0-1-0-4-3-0-1-6---0-1-0-4-3-0-1-6---0-1-0-4-3-0-1-3-------------------------------- 
C#|-0-1-0-4-3-0-1-6---0-1-0-4-3-0-1-6---0-1-0-4-3-0-1-6---0-1-0-4-3-0-1-6---0-1-0-4-3-0-1-3-------------------------------- 

*VERSO (Com o Chester cantando o Refrão) 


Brad Delson: 
Mantêm esses licks 

D#|-0---------------------------------------------------------------------------------------------------------------------- 
A#|-5-h-7/8/12-p-10/12/13-p-12--------------------------------------------------------------------------------------------- 
F#|------------------------------------------------------------------------------------------------------------------------ 
C#|------------------------------------------------------------------------------------------------------------------------ 
G#|------------------------------------------------------------------------------------------------------------------------ 
C#|------------------------------------------------------------------------------------------------------------------------ 

Mike Shinoda: 

D#|------------------------------------------------------------------------------------------------------------------------ 
A#|------------------------------------------------------------------------------------------------------------------------ 
F#|------------------------------------------------------------------------------------------------------------------------ 
C#|-2-2-2-2-2-2---2-2-2-2-2-2---2-2-2-2-2-2---2-2-2-2-2-2------------------------------------------------------------------ 
G#|-2-2-2-2-2-2---2-2-2-2-2-2---2-2-2-2-2-2---2-2-2-2-2-2------------------------------------------------------------------ 
C#|-2-2-2-2-2-2---2-2-2-2-2-2---2-2-2-2-2-2---2-2-2-2-2-2------------------------------------------------------------------ 

*Refrão 

Mike Shinoda e Brad Delson 

D#|------------------------------------------------------------------------------------------------------------------------ 
A#|------------------------------------------------------------------------------------------------------------------------ 
F#|------------------------------------------------------------------------------------------------------------------------ 
C#|-10-10-10-10-10-10-9-9-9-9-9-9-2-2-2-2-2-2-2-2-2-2-2-2------------------------------------------------------------------ 
G#|-10-10-10-10-10-10-9-9-9-9-9-9-2-2-2-2-2-2-2-2-2-2-2-2------------------------------------------------------------------ 
C#|-10-10-10-10-10-10-9-9-9-9-9-9-2-2-2-2-2-2-2-2-2-2-2-2------------------------------------------------------------------ 

D#|------------------------------------------------------------------------------------------------------------------------ 
A#|------------------------------------------------------------------------------------------------------------------------ 
F#|------------------------------------------------------------------------------------------------------------------------ 
C#|-10-10-10-10-10-10-9-9-9-9-9-9-2-2-2-2-2-2-2-2-2-2-2-2------------------------------------------------------------------ 
G#|-10-10-10-10-10-10-9-9-9-9-9-9-2-2-2-2-2-2-2-2-2-2-2-2------------------------------------------------------------------ 
C#|-10-10-10-10-10-10-9-9-9-9-9-9-2-2-2-2-2-2-2-2-2-2-2-2------------------------------------------------------------------ 

D#|------------------------------------------------------------------------------------------------------------------------ 
A#|------------------------------------------------------------------------------------------------------------------------ 
F#|------------------------------------------------------------------------------------------------------------------------ 
C#|-10-10-10-10-10-10-9-9-9-9-9-9-2-2-2-2-2-2-2-2-2-2-2-2-5-5-5-5-5-5-5-5-5-5-5-5-9-9-9-9-9-9-9-9-9-9-9-9------------------ 
G#|-10-10-10-10-10-10-9-9-9-9-9-9-2-2-2-2-2-2-2-2-2-2-2-2-5-5-5-5-5-5-5-5-5-5-5-5-9-9-9-9-9-9-9-9-9-9-9-9------------------ 
C#|-10-10-10-10-10-10-9-9-9-9-9-9-2-2-2-2-2-2-2-2-2-2-2-2-5-5-5-5-5-5-5-5-5-5-5-5-9-9-9-9-9-9-9-9-9-9-9-9------------------ 

Brad Delson: 
Mantêm esses licks 

D#|-0---------------------------------------------------------------------------------------------------------------------- 
A#|-5-h-7/8/12-p-10/12/13-p-12--------------------------------------------------------------------------------------------- 
F#|------------------------------------------------------------------------------------------------------------------------ 
C#|------------------------------------------------------------------------------------------------------------------------ 
G#|------------------------------------------------------------------------------------------------------------------------ 
C#|------------------------------------------------------------------------------------------------------------------------ 

Mike Shinoda: 
Mantêm essa base 

D#|------------------------------------------------------------------------------------------------------------------------ 
A#|------------------------------------------------------------------------------------------------------------------------ 
F#|------------------------------------------------------------------------------------------------------------------------ 
C#|-2-2-2-2-2-2-2---------------------------------------------------------------------------------------------------------- 
G#|-2-2-2-2-2-2-2---------------------------------------------------------------------------------------------------------- 
C#|-2-2-2-2-2-2-2---------------------------------------------------------------------------------------------------------- 

*Refrão 

Mike Shinoda e Brad Delson: 

D#|------------------------------------------------------------------------------------------------------------------------ 
A#|------------------------------------------------------------------------------------------------------------------------ 
F#|------------------------------------------------------------------------------------------------------------------------ 
C#|-10-10-10-10-10-10-9-9-9-9-9-9-2-2-2-2-2-2-2-2-2-2-2-2------------------------------------------------------------------ 
G#|-10-10-10-10-10-10-9-9-9-9-9-9-2-2-2-2-2-2-2-2-2-2-2-2------------------------------------------------------------------ 
C#|-10-10-10-10-10-10-9-9-9-9-9-9-2-2-2-2-2-2-2-2-2-2-2-2------------------------------------------------------------------ 

D#|------------------------------------------------------------------------------------------------------------------------ 
A#|------------------------------------------------------------------------------------------------------------------------ 
F#|------------------------------------------------------------------------------------------------------------------------ 
C#|-10-10-10-10-10-10-9-9-9-9-9-9-2-2-2-2-2-2-2-2-2-2-2-2------------------------------------------------------------------ 
G#|-10-10-10-10-10-10-9-9-9-9-9-9-2-2-2-2-2-2-2-2-2-2-2-2------------------------------------------------------------------ 
C#|-10-10-10-10-10-10-9-9-9-9-9-9-2-2-2-2-2-2-2-2-2-2-2-2------------------------------------------------------------------ 

D#|------------------------------------------------------------------------------------------------------------------------ 
A#|------------------------------------------------------------------------------------------------------------------------ 
F#|------------------------------------------------------------------------------------------------------------------------ 
C#|-10-10-10-10-10-10-9-9-9-9-9-9-2-2-2-2-2-2-2-2-2-2-2-2-5-5-5-5-5-5-5-5-5-5-5-5-9-9-9-9-9-9-1-1-1-1-1-1------------------ 
G#|-10-10-10-10-10-10-9-9-9-9-9-9-2-2-2-2-2-2-2-2-2-2-2-2-5-5-5-5-5-5-5-5-5-5-5-5-9-9-9-9-9-9-1-1-1-1-1-1------------------ 
C#|-10-10-10-10-10-10-9-9-9-9-9-9-2-2-2-2-2-2-2-2-2-2-2-2-5-5-5-5-5-5-5-5-5-5-5-5-9-9-9-9-9-9-1-1-1-1-1-1------------------ 

*VERSO 

Brad Delson: 
Mantêm esses licks 

D#|-0---------------------------------------------------------------------------------------------------------------------- 
A#|-5-h-7/8/12-p-10/12/13-p-12--------------------------------------------------------------------------------------------- 
F#|------------------------------------------------------------------------------------------------------------------------ 
C#|------------------------------------------------------------------------------------------------------------------------ 
G#|------------------------------------------------------------------------------------------------------------------------ 
C#|------------------------------------------------------------------------------------------------------------------------ 

Mike Shinoda 

D#|------------------------------------------------------------------------------------------------------------------------ 
A#|------------------------------------------------------------------------------------------------------------------------ 
F#|------------------------------------------------------------------------------------------------------------------------ 
C#|-2-2-2-2-2-2-2---2-2-2-2---2-2-2-2-2-2-2-2-2-2-2-2-2---2-2-2-2---------------------------------------------------------- 
G#|-2-2-2-2-2-2-2---2-2-2-2---2-2-2-2-2-2-2-2-2-2-2-2-2---2-2-2-2---------------------------------------------------------- 
C#|-2-2-2-2-2-2-2---2-2-2-2---2-2-2-2-2-2-2-2-2-2-2-2-2---2-2-2-2---------------------------------------------------------- 
(Na terceira vez entra um palm mute e antes do Refrão volta ao normal) 

*Refrão 

Mike Shinoda e Brad Delson 

D#|------------------------------------------------------------------------------------------------------------------------ 
A#|------------------------------------------------------------------------------------------------------------------------ 
F#|------------------------------------------------------------------------------------------------------------------------ 
C#|-10-10-10-10-10-10-9-9-9-9-9-9-2-2-2-2-2-2-2-2-2-2-2-2------------------------------------------------------------------ 
G#|-10-10-10-10-10-10-9-9-9-9-9-9-2-2-2-2-2-2-2-2-2-2-2-2------------------------------------------------------------------ 
C#|-10-10-10-10-10-10-9-9-9-9-9-9-2-2-2-2-2-2-2-2-2-2-2-2------------------------------------------------------------------ 

D#|------------------------------------------------------------------------------------------------------------------------ 
A#|------------------------------------------------------------------------------------------------------------------------ 
F#|------------------------------------------------------------------------------------------------------------------------ 
C#|-10-10-10-10-10-10-9-9-9-9-9-9-2-2-2-2-2-2-2-2-2-2-2-2------------------------------------------------------------------ 
G#|-10-10-10-10-10-10-9-9-9-9-9-9-2-2-2-2-2-2-2-2-2-2-2-2------------------------------------------------------------------ 
C#|-10-10-10-10-10-10-9-9-9-9-9-9-2-2-2-2-2-2-2-2-2-2-2-2------------------------------------------------------------------ 

D#|------------------------------------------------------------------------------------------------------------------------ 
A#|------------------------------------------------------------------------------------------------------------------------ 
F#|------------------------------------------------------------------------------------------------------------------------ 
C#|-10-10-10-10-10-10-9-9-9-9-9-9-2-2-2-2-2-2-2-2-2-2-2-2-5-5-5-5-5-5-5-5-5-5-5-5-9-9-9-9-9-9-1-1-1-1-1-1------------------ 
G#|-10-10-10-10-10-10-9-9-9-9-9-9-2-2-2-2-2-2-2-2-2-2-2-2-5-5-5-5-5-5-5-5-5-5-5-5-9-9-9-9-9-9-1-1-1-1-1-1------------------ 
C#|-10-10-10-10-10-10-9-9-9-9-9-9-2-2-2-2-2-2-2-2-2-2-2-2-5-5-5-5-5-5-5-5-5-5-5-5-9-9-9-9-9-9-1-1-1-1-1-1------------------ 

*VERSO 

Brad Delson: 
Mantêm esses licks 

D#|-0---------------------------------------------------------------------------------------------------------------------- 
A#|-5-h-7/8/12-p-10/12/13-p-12--------------------------------------------------------------------------------------------- 
F#|------------------------------------------------------------------------------------------------------------------------ 
C#|------------------------------------------------------------------------------------------------------------------------ 
G#|------------------------------------------------------------------------------------------------------------------------ 
C#|------------------------------------------------------------------------------------------------------------------------ 

Mike Shinoda: 

D#|------------------------------------------------------------------------------------------------------------------------ 
A#|------------------------------------------------------------------------------------------------------------------------ 
F#|------------------------------------------------------------------------------------------------------------------------ 
C#|-2-2-2-2-2-2-2---2-2-2-2---2-2-2-2-2-2-2-2-2-2-2-2-2---2-2-2-2---------------------------------------------------------- 
G#|-2-2-2-2-2-2-2---2-2-2-2---2-2-2-2-2-2-2-2-2-2-2-2-2---2-2-2-2---------------------------------------------------------- 
C#|-2-2-2-2-2-2-2---2-2-2-2---2-2-2-2-2-2-2-2-2-2-2-2-2---2-2-2-2---------------------------------------------------------- 
(Na segunda vez entra um palm mute e antes do Refrão volta ao normal) 

*Refrão 

Mike Shinoda e Brad Delson 

D#|------------------------------------------------------------------------------------------------------------------------ 
A#|------------------------------------------------------------------------------------------------------------------------ 
F#|------------------------------------------------------------------------------------------------------------------------ 
C#|-10-10-10-10-10-10-9-9-9-9-9-9-2-2-2-2-2-2-2-2-2-2-2-2------------------------------------------------------------------ 
G#|-10-10-10-10-10-10-9-9-9-9-9-9-2-2-2-2-2-2-2-2-2-2-2-2------------------------------------------------------------------ 
C#|-10-10-10-10-10-10-9-9-9-9-9-9-2-2-2-2-2-2-2-2-2-2-2-2------------------------------------------------------------------ 

D#|------------------------------------------------------------------------------------------------------------------------ 
A#|------------------------------------------------------------------------------------------------------------------------ 
F#|------------------------------------------------------------------------------------------------------------------------ 
C#|-10-10-10-10-10-10-9-9-9-9-9-9-2-2-2-2-2-2-2-2-2-2-2-2------------------------------------------------------------------ 
G#|-10-10-10-10-10-10-9-9-9-9-9-9-2-2-2-2-2-2-2-2-2-2-2-2------------------------------------------------------------------ 
C#|-10-10-10-10-10-10-9-9-9-9-9-9-2-2-2-2-2-2-2-2-2-2-2-2------------------------------------------------------------------ 

D#|------------------------------------------------------------------------------------------------------------------------ 
A#|------------------------------------------------------------------------------------------------------------------------ 
F#|------------------------------------------------------------------------------------------------------------------------ 
C#|-10-10-10-10-10-10-9-9-9-9-9-9-2-2-2-2-2-2-2-2-2-2-2-2-5-5-5-5-5-5-5-5-5-5-5-5-9-9-9-9-9-9-1-1-1-1-1-1------------------ 
G#|-10-10-10-10-10-10-9-9-9-9-9-9-2-2-2-2-2-2-2-2-2-2-2-2-5-5-5-5-5-5-5-5-5-5-5-5-9-9-9-9-9-9-1-1-1-1-1-1------------------ 
C#|-10-10-10-10-10-10-9-9-9-9-9-9-2-2-2-2-2-2-2-2-2-2-2-2-5-5-5-5-5-5-5-5-5-5-5-5-9-9-9-9-9-9-1-1-1-1-1-1------------------ 

*INTERLÚDIO 

Mike Shinoda e Brad Delson: 

D#|------------------------------------------------------------------------------------------------------------------------ 
A#|------------------------------------------------------------------------------------------------------------------------ 
F#|------------------------------------------------------------------------------------------------------------------------ 
C#|-0-1-0-4-3-0-1-6---0-1-0-4-3-0-1-6---0-1-0-4-3-0-1-6---0-1-0-4-3-0-1-6---0-1-0-4-3-0-1-3-------------------------------- 
G#|-0-1-0-4-3-0-1-6---0-1-0-4-3-0-1-6---0-1-0-4-3-0-1-6---0-1-0-4-3-0-1-6---0-1-0-4-3-0-1-3-------------------------------- 
C#|-0-1-0-4-3-0-1-6---0-1-0-4-3-0-1-6---0-1-0-4-3-0-1-6---0-1-0-4-3-0-1-6---0-1-0-4-3-0-1-3-------------------------------- 

-Na Segunda vez: 

Brad Delson mantêm esses licks: 

D#|-0---------------------------------------------------------------------------------------------------------------------- 
A#|-5-h-7/8/12-p-10/12/13-p-12--------------------------------------------------------------------------------------------- 
F#|------------------------------------------------------------------------------------------------------------------------ 
C#|------------------------------------------------------------------------------------------------------------------------ 
G#|------------------------------------------------------------------------------------------------------------------------ 
C#|------------------------------------------------------------------------------------------------------------------------ 

Mike Shinoda: 

D#|------------------------------------------------------------------------------------------------------------------------ 
A#|------------------------------------------------------------------------------------------------------------------------ 
F#|------------------------------------------------------------------------------------------------------------------------ 
C#|-2-2-2-2-2-2-2---2-2-2-2---2-2-2-2-2-2-2-2-2-2-2-2-2---2-2-2-2---2-2-2-2------------------------------------------------ 
G#|-2-2-2-2-2-2-2---2-2-2-2---2-2-2-2-2-2-2-2-2-2-2-2-2---2-2-2-2---2-2-2-2------------------------------------------------ 
C#|-2-2-2-2-2-2-2---2-2-2-2---2-2-2-2-2-2-2-2-2-2-2-2-2---2-2-2-2---2-2-2-2------------------------------------------------ 

Are you lost in your lies? 
Do you tell yourself I don't realize 
Your crusade's a disguise? 
Replaced freedom with fear 
You trade money for lives 
I'm aware of what you've done 

No, no more sorrow 
I've paid for your mistakes 
Your time is borrowed 
Your time has come to be replaced 

I see pain, I see need 
I see liars and fiends 
Abuse power with greed 
I had hope, I believed 
But I'm beginning to think that I've been decieved 
You will pay for what you've done 

No, no more sorrow 
I've paid for your mistakes 
Your time is borrowed 
Your time has come to be replaced 

Thieves and hypocrites! 
Thieves and hypocrites! 
Thieves and hypocrites! 

No, no more sorrow 
I've paid for your mistakes 
Your time is borrowed 
Your time has come to be replaced 

No more sorrow 
I've paid for your mistakes 
Your time is borrowed 
Your time has come to be replaced 

Your time has come to be replaced 
Your time has come to be erased 

	  

Solicitar el vídeo de "No more sorrow" - Descargar No more sorrow mp3

No existe una video leccione para esta canción

solicitar
140

Envie sus comentários.

0 comentários

 
LosAcordes
Buscar
auto avanzar rasgueos aumentar disminuir cambiar color esconder acordes gráficos
losacordes exhibir acordes losacordes youTube video losacordes ocultar tabs losacordes cambiar notación losacordes ir hacia arriba losacordes