A B C D E F G H I J K L M N O P Q R S T U V X Y Z 0-9
Leo Brouwer

Início > Leo Brouwe... > acordes

Leo Brouwer

Estudios Sencillios VI

Dificultad:Ningún gradoNingún grado

por Acelot

tuner corregir añadir para songbook version para impresion version de texto version rtf e-mail
acordestablaturabajobateríaarmónicaflautacavacopiano Guitar Pro
acordes

Estudios Sencillios VI

(Leo Brouwer)

	  Parte A:   

e|---0------0--------------------0-------0-------------------|   
B|-----4------4------4-------------4-------4-------4---------|   
G|-------6------6------6-------------6-------6-------6-------|   
D|-----------------7-----7----------------------7-------7----|   
A|-0------------------------0--0---------------------------0-|   
E|-----------------------------------------------------------|   

e|---0------0---------------------0------0------------------|   
B|-----4------4-------4-------------4------4-----4----------|   
G|-------6------6-------6-------------6------6-----6--------|   
D|-----------------5------5--------------------5-----5------|   
A|-0-------------------------0-0------------------------0---|   
E|----------------------------------------------------------|   

e|-----0------0------------------------0------0-----------------|   
B|-------4------4--------4---------------4------4------4--------|   
G|---------5------5--------5---------------5------5------5------|   
D|------------------4--------4----------------------4------4----|   
A|-0---------------------------0--0---------------------------0-|   
E|--------------------------------------------------------------|   

e|-----0------0--------------------0------0------------------|   
B|-------3------3------3-------------3------3------3---------|   
G|---------4------4------4-------------4------4------4-------|   
D|------------------3------3--------------------3-------3----|   
A|-0-------------------------0--0--------------------------0-|   
E|-----------------------------------------------------------|   

e|---0-----0--------------------0------0-----------------|   
B|-----2-----2-----2--------------2------2------2--------|   
G|-------4-----4-----4--------------4------4------4------|   
D|---------------2-----2---------------------2------2----|   
A|-0----------------------0--0-------------------------0-|   
E|-------------------------------------------------------|   

e|----0------0--------------------0------0--------------|   
B|------1------1-----1--------------1------1-----1------|   
G|--------4------4-----4--------------4------4-----4----|   
D|-----------------2-----2---------------------2-----2--|   
A|-0------------------------0--0-----------------------0|   
E|------------------------------------------------------|   

e|----0------0---------------------0-------0------------------|   
B|------1------1------1--------------1-------1------1---------|   
G|--------4------4------4--------------4-------4------4-------|   
D|-----------------2------2----------------------2------2-----|   
A|------------------------------------------------------------|   
E|-3-------------------------3--3---------------------------3-|   

e|----0------0--------------------0------0-----------------|   
B|------0------0-----0--------------0------0------0--------|   
G|--------2------2-----2--------------2------2------2------|   
D|-----------------1-----1---------------------1------1----|   
A|---------------------------------------------------------|   
E|-2-------------------------2-2-------------------------2-|   

e|----0------0---------------------0------0-------------------|   
B|------0------0-----0---------------0------0------0----------|   
G|--------1------1-----1---------------1------1------1--------|   
D|-----------------0-----0----------------------0------0------|   
A|------------------------------------------------------------|   
E|-1------------------------1--1----------------------------1-|   

e|----0------0--------------------0-----0------------------|   
B|------0------0------0-------------0-----0------0---------|   
G|--------2------2------2-------------2-----2------2-------|   
D|-----------------2------2-------------------2------2-----|   
A|---------------------------------------------------------|   
E|-0-------------------------0--0------------------------0-|   

e|----0------0----------------------0------0--------------------|   
B|------0------0-----0----------------0------0------0-----------|   
G|--------1------1-----1----------------1------1------1---------|   
D|-----------------2-----2-----------------------2------2-------|   
A|------------------------------------------------------------0-|   
E|-0-------------------------0--0--------------------------0----|   

Parte B:   

e|----0---------------------0------------------|   
B|------0-------0-------------0--------0-------|   
G|--------10------10------------10-------10----|   
D|-----------12------12------------12-------12-|   
A|-0---------------------0---------------------|   
E|---------------------------------------------|   

e|----0----------------------0------------------|   
B|------0-------0--------------0--------0-------|   
G|--------11------11-------------11-------11----|   
D|-----------11------11-------------11-------11-|   
A|-0---------------------0----------------------|   
E|----------------------------------------------|   

e|----0---------------------0------------------|   
B|------0-------0-------------0--------0-------|   
G|--------10------10------------10-------10----|   
D|-----------12------12------------12-------12-|   
A|-0---------------------0---------------------|   
E|---------------------------------------------|   

e|----0----------------------0------------------|   
B|------0-------0--------------0--------0-------|   
G|--------11------11-------------11-------11----|   
D|-----------11------11-------------11-------11-|   
A|-0---------------------0----------------------|   
E|----------------------------------------------|   

e|-0------------------0---------------|   
B|---0------0-----------0-------0-----|   
G|-----7------7------------7------7---|   
D|-------4------4------------4------4-|   
A|-0---------------0------------------|   
E|------------------------------------|   

e|----0-----------------0---------------|   
B|------0------0----------0------0------|   
G|--------6------6----------6------6----|   
D|----------6------6----------6------6--|   
A|-0-----------------0------------------|   
E|--------------------------------------|   

e|-0------------------0---------------|   
B|---0------0-----------0-------0-----|   
G|-----7------7------------7------7---|   
D|-------4------4------------4------4-|   
A|-0---------------0------------------|   
E|------------------------------------|   

e|----0-----------------0---------------|   
B|------0------0----------0------0------|   
G|--------6------6----------6------6----|   
D|----------6------6----------6------6--|   
A|-0-----------------0------------------|   
E|--------------------------------------|   

e|----0---------------------0------------------|   
B|------0-------0-------------0--------0-------|   
G|--------10------10------------10-------10----|   
D|-----------12------12------------12-------12-|   
A|-0---------------------0---------------------|   
E|---------------------------------------------|   

e|----0----------------------0------------------|   
B|------0-------0--------------0--------0-------|   
G|--------11------11-------------11-------11----|   
D|-----------11------11-------------11-------11-|   
A|-0---------------------0----------------------|   
E|----------------------------------------------|   

e|----0---------------------0------------------|   
B|------0-------0-------------0--------0-------|   
G|--------10------10------------10-------10----|   
D|-----------12------12------------12-------12-|   
A|-0---------------------0---------------------|   
E|---------------------------------------------|   

e|----0----------------------0------------------|   
B|------0-------0--------------0--------0-------|   
G|--------11------11-------------11-------11----|   
D|-----------11------11-------------11-------11-|   
A|-0---------------------0----------------------|   
E|----------------------------------------------|   

e|-0------------------0---------------|   
B|---0------0-----------0-------0-----|   
G|-----7------7------------7------7---|   
D|-------4------4------------4------4-|   
A|-0---------------0------------------|   
E|------------------------------------|   

e|----0-----------------0---------------|   
B|------0------0----------0------0------|   
G|--------6------6----------6------6----|   
D|----------6------6----------6------6--|   
A|-0-----------------0------------------|   
E|--------------------------------------|   

e|----0------------------0--------------|   
B|------3------3-----------3------3-----|   
G|--------4------4-----------4------4---|   
D|----------3------3-----------3------3-|   
A|-0------------------0-----------------|   
E|--------------------------------------|   

e|----0------------------0-----------------0-|   
B|------2------2-----------2------2--------2-|   
G|--------3------3-----------3------3------3-|   
D|----------4------4-----------4------4----4-|   
A|-0------------------0--------------------0-|   
E|-------------------------------------------|   


	  

Solicitar el vídeo de "Estudios Sencillios VI" - Descargar Estudios Sencillios VI mp3

No existe una video leccione para esta canción

solicitar
140

Envie sus comentários.

0 comentários

 
LosAcordes
Buscar
auto avanzar rasgueos aumentar disminuir cambiar color esconder acordes gráficos
losacordes exhibir acordes losacordes youTube video losacordes ocultar tabs losacordes cambiar notación losacordes ir hacia arriba losacordes