La rondalla de saltillo

Início > La rondall... > acordes

Wendolly Tablatura

La rondalla de saltillo

Dificultad:FácilFácil

por leanjunior

tuner correct add songbook print version text version salvar en e-mail
acordesukuleletablaturabajobateríaarmónicaflautacavacopiano Guitar Pro
acordes

Wendolly

(Julio Iglesias)

	  El siguiente requinto suena idéntico al original 
si saben usar los efectos h y p. 

                     Gm                        A7 

E --------------------------------------------------- 
A --------------------------------------------------- 
D --------------------------------------------------- 
G ---7----------------------------------------------- 
B -----5--6----8--------------------8----8-6h8p6—5--- 
E ----------------5—5h6----6—5h6p5------------------- 

                     Dm     A7        Dm (pausa) 

E ------------------------------------------ 
A ------------------------------------------ 
D ------------------------------------------ 
G ---------------7--6--7---------------7---- 
B ---5--6—5h6p5-------------6----5-----6---- 
E ------------------------5----5----5--5---- 


Si no saben usar los efectos, el rekinto se escucha 
bien de la siguiente forma: 

                   Gm                        A7 

E ------------------------------------------------ 
A ------------------------------------------------ 
D ------------------------------------------------ 
G ---7-------------------------------------------- 
B -----5--6----8--------------------8----8-6--5--- 
E ----------------5--6----6--5-------------------- 

                  Dm     A7        Dm (pausa) 

E ------------------------------------------ 
A ------------------------------------------ 
D ------------------------------------------ 
G ------------7--6--7---------------7---- 
B ---5--6--5-------------6----5-----6---- 
E ---------------------5----5----5--5---- 


Tremolado 

El rekinto va acompañado por un tremolado muy 
sencillo que empieza en Gm al mismo tiempo que el 
acompañamiento de las guitarras de la siguiente forma: 

     Gm            A7         Dm        A7        Dm 

E ------------------------------------------------------ 
A ------------------------------------------------------ 
D ------------------------------------------------------ 
G ------------------------------------------------------ 
B ------------------------------------------------------ 
E ---10-10-10-10---99999999---10-10-10-10-10-10-10-10--- 


Letra y acordes. 


              Gm               C7                  F 
Tan dentro de mí conservo el calor que me hace sentir, 

    A7       Dm                Gm                  Dm 
conservo tu amor tan dentro de mí que aún puedo vivir 

              A7             Dm (pausa) 
muriendo de amor muriendo de ti. 


                 (a partir de el rasgueo de Gm, empieza 
                  otro tremolado) 
                 Gm                 C7 
Como buscan las olas la orilla del mar, como busca un 

                E-------------------------------------- 
                A-------------------------------------- 
                D-------------------------------------- 
                G-------------------------------------- 
                B-------------------------------------- 
                E-6666666-5555555-333333333333333333--- 

   F        A7          Dm                     Gm 
marino su puerto y su hogar yo he buscado en mi alma 

E------------------------------------------------------ 
A------------------------------------------------------ 
D------------------------------------------------------ 
G------------------------------------------------------ 
B------------------------------------------------------ 
E-5555555-3333333-111111111111111111111111111-3333333-- 

               A7                  Dm  A7    Dm (pausa) 
queriéndote hallar y tan solo encontre mi soledad. 

E------------------------ 
A------------------------ 
D------------------------ 
G------------------------ 
B------------------------ 
E-1111111-000000000000--- 


                 Gm                C7 
A pesar de estar lejos tan lejos de mí 

                   F      A7        Dm 
A pesar de otros besos quizas Wendoline 

                  Gm                      A7 
aún recuerdes el tiempo de aquel nuestro amor aún te 

            Dm (pausa) 
acuerdes de mí. 

               Gm                  C7 

E -------------------------------------- 
A -------------------------------------- 
D -------------------------------------- 
G ---7---------------------------------- 
B -----5-6--6s8-------8---6-8-6-8-6-5--- 
E --------------5-6-5------------------- 

                 F        A7        Dm 

E --------------------------------------- 
A --------------------------------------- 
D --------------------------------------- 
G ---5-7-----------------------------7--- 
B -------5------------8-6--5-6-5-6-5----- 
E ---------6s8-6-5--5-------------------- 

              Gm                   A7 

E -------------------------------------- 
A -------------------------------------- 
D --7-8--------------------------------- 
G ------5-7-------------------------6--- 
B ----------6-6s8--8-6-5--3-5-3-5-3----- 
E -------------------------------------- 

               Dm (pausa) 

E ----------------- 
A ----------------- 
D ----------------- 
G -------------7--- 
B -------8-6-5----- 
E ---5-5----------- 


                    Gm                         C7 
Aún recuerdo aquel ayer cuando estabas junto a mí 

                    F        A7     Dm 
tú me hablabas del amor yo solía sonreír 

                    Gm      Dm       A7      Dm (pausa) 
aun recuerdo aquel amor y ahora te alejas de mí. 


                   (otra vez se toca el tremolado) 
                   Gm                    C7 
Le he pedido al silencio que me hable de ti 

                E-------------------------------------- 
                A-------------------------------------- 
                D-------------------------------------- 
                G-------------------------------------- 
                B-------------------------------------- 
                E-6666666-5555555-333333333333333333--- 

                  F          A7      Dm 
he vagado en las noches queriéndote oír 

                E-------------------------------------- 
                A-------------------------------------- 
                D-------------------------------------- 
                G-------------------------------------- 
                B-------------------------------------- 
                E-5555555-3333333-111111111111111111--- 

                  Gm                A7 (pausa) 
y al sonido del viento le he oído decir 

                E------------------------- 
                A------------------------- 
                D------------------------- 
                G------------------------- 
                B------------------------- 
                E-3333333--1111111--0----- 
tu nombre 

      Dm      G     Dm 
Wendolyne 

                E-------- 
                A-------- 
                D-------- 
                G---10--- 
                B---10--- 
                E---10---
	  

No existe una video leccione para esta canción

request
Aumentar uno tonoAumentar uno tono
Aumentar uno semi-tonoAumentar uno semi-tono
Disminuir uno semi-tonoDisminuir uno semi-tono
Disminuir uno tonoDisminuir uno semi-tono
LosAcordes
Buscar
auto avanzar rasgueos aumentar disminuir cambiar color esconder acordes gráficos
losacordes exhibir acordes losacordes youTube video losacordes ocultar tabs losacordes ir hacia arriba losacordes