La rondalla de saltillo

Início > La rondall... > acordes

Ahora Que Soy Mayor Tablatura

La rondalla de saltillo

Dificultad:PrincipiantePrincipiante

por victborges

tuner correct add songbook print version text version salvar en e-mail
acordesukuleletablaturabajobateríaarmónicaflautacavacopiano Guitar Pro
acordes

Ahora Que Soy Mayor

	  Esta canción esta muy bonita y muy buena elección 
para el 10 de mayo escúchenla para darle el ritmo. 

                     *** INTRO *** 
e|----------|---------------|----------|---------------| 
B|-----0-1--|-----0-1-3-1-0-|-----0-1--|-----0-1-3-1-0-| 
G|---0------|---0-----------|---0------|---0-----------| 
D|----------|---------------|----------|---------------| 
A|----------|---------------|----------|---------------| 
E|-3--------|-3-------------|-3--------|-3-------------| 


   G              Bm              Bm       A#m 
   Yo  con  tigo  viví 
e|-------3-------|-------2-------|--------|--------| 
B|-----3----3----|-----3----3----|-----3--|-----2--| 
G|---0--------0--|---4--------4--|---4----|---3----| 
D|---------------|---------------|--------|--------| 
A|---------------|---------------|--------|--------| 
G|-3-------------|-2-------------|-2------|-1------| 

   Am              D7 
  Muchas cosas hermosas 
e|-------0-------|-------2------| 
B|-----1----1----|-----1---1----| 
G|---2--------2--|---2-------2--| 
D|---------------|-0------------| 
A|---------------|--------------| 
E|-0-------------|--------------| 

   G               Bm             Bm       A#m 
   Contigo compartí 
e|-------3-------|-------2-------|--------|--------| 
B|-----3----3----|-----3----3----|-----3--|-----2--| 
G|---0--------0--|---4--------4--|---4----|---3----| 
D|---------------|---------------|--------|--------| 
A|---------------|---------------|--------|--------| 
E|-3-------------|-2-------------|-2------|-1------| 

  Am              D7 
  Navidades dichosas. 
e|-------0-------|-------2--------| 
B|-----1----1----|-----1---1------| 
G|---2--------2--|---2-------2----| 
D|---------------|-0--------------| 
A|---------------|----------------| 
E|-0-------------|----------------| 


C        C7      Cm 
Y hoy que soy mayor 
   G 
Quisiera rendirte 
       E7 
El tributo más grande 
    Am          Cm  D7 
Que te puedo dar      mama 


                     *** INTRO *** 
e|----------|---------------|----------|---------------| 
B|-----0-1--|-----0-1-3-1-0-|-----0-1--|-----0-1-3-1-0-| 
G|---0------|---0-----------|---0------|---0-----------| 
D|----------|---------------|----------|---------------| 
A|----------|---------------|----------|---------------| 
E|-3--------|-3-------------|-3--------|-3-------------| 



   G              Bm              Bm      A#m 
   Tú has velado por mí 
e|-------3-------|-------2-------|--------|--------| 
B|-----3----3----|-----3----3----|-----3--|-----2--| 
G|---0--------0--|---4--------4--|---4----|---3----| 
D|---------------|---------------|--------|--------| 
A|---------------|---------------|--------|--------| 
E|-3-------------|-2-------------|-2------|-1------| 

  Am               D7 
  Has cuidado mis pasos 
e|-------0-------|-------2------| 
B|-----1----1----|-----1---1----| 
G|---2--------2--|---2-------2--| 
D|---------------|-0------------| 
A|---------------|--------------| 
E|-0-------------|--------------| 

   G              Bm              Bm       A#m 
   Y contigo aprendí 
e|-------3-------|-------2-------|--------|--------| 
B|-----3----3----|-----3----3----|-----3--|-----2--| 
G|---0--------0--|---4--------4--|---4----|---3----| 
D|---------------|---------------|--------|--------| 
A|---------------|---------------|--------|--------| 
E|-3-------------|-2-------------|-2------|-1------| 

   Am              D7 
  Lo que vale un abrazo. 
e|-------0-------|-------2-------2-| 
B|-----1----1----|-----1---1-----1-| 
G|---2--------2--|---2-------2---2-| 
D|---------------|-0-------------0-| 
A|---------------|---------------0-| 
E|-0-------------|---------------0-| 


    C      C7      Cm 
Pero hoy que soy mayor 
   G 
Quisiera decirte 
         E7 
Que aun vivo en tus manos 
         Am         Cm  D7     G  Dm  G7 
Y que nadie es mejor      que tu. 


C                 D7 
Como podré agradecerte 
                       Bm 
Aquel golpe que me diste, 
            E7 
Recuerdo bien, 
Am 
Cuando en lo alto de un árbol 
       D7    G     Dm  G7 
Me viste casi caer. 


C                 D7 
Como podré agradecerte 
                Bm 
Si un grano de sal, 
        E7 
No pagare 
     Am      Cm       D7  G 
Con solo amor    te pagare. 


          Inter. GBmAmCm - D7 

                     *** INTRO *** 
e|----------|---------------|----------|---------------| 
B|-----0-1--|-----0-1-3-1-0-|-----0-1--|-----0-1-3-1-0-| 
G|---0------|---0-----------|---0------|---0-----------| 
D|----------|---------------|----------|---------------| 
A|----------|---------------|----------|---------------| 
E|-3--------|-3-------------|-3--------|-3-------------| 

   G              Bm              Bm       A#m 
   Pero como olvidar 
e|-------3-------|-------2-------|--------|--------| 
B|-----3----3----|-----3----3----|-----3--|-----2--| 
G|---0--------0--|---4--------4--|---4----|---3----| 
D|---------------|---------------|--------|--------| 
A|---------------|---------------|--------|--------| 
E|-3-------------|-2-------------|-2------|-1------| 

   Am              D7 
  Que has querido a mi padre 
e|-------0-------|-------2---------| 
B|-----1----1----|-----1---1-------| 
G|---2--------2--|---2-------2-----| 
D|---------------|-0---------------| 
A|---------------|-----------------| 
E|-0-------------|-----------------| 

   G               Bm             Bm       A#m 
   En esa forma especial 
e|-------3-------|-------2-------|--------|--------| 
B|-----3----3----|-----3----3----|-----3--|-----2--| 
G|---0--------0--|---4--------4--|---4----|---3----| 
D|---------------|---------------|--------|--------| 
A|---------------|---------------|--------|--------| 
E|-3-------------|-2-------------|-2------|-1------| 

   Am              D7 
  Que no puede igualarse. 
e|-------0-------|-------2-------2-| 
B|-----1----1----|-----1---1-----1-| 
G|---2--------2--|---2-------2---2-| 
D|---------------|-0-------------0-| 
A|---------------|---------------0-| 
E|-0-------------|---------------0-| 



C        C7      Cm 
Y hoy que soy mayor 
   G            E7 
Quisiera besarte, mimarte, 
                 Am 
Tenerte en mis brazos 
        Cm  D7     Dm  G7 
Otra vez       mama. 


C                 D7 
Como podré agradecerte 
                       Bm 
Aquel golpe que me diste, 
            E7 
Recuerdo bien, 
Am 
Cuando en lo alto de un árbol 
       D7    G     Dm  G7 
Me viste casi caer. 


C                 D7 
Como podré agradecerte 
                Bm 
Si un grano de sal, 
        E7 
No pagare 
     Am      Cm         RIFF-1 
Con solo amor    te pagare. 



      *** RIFF-1 *** 
|-------2-----|--------3--| 
|-----1---1---|--------3--| 
|---2-------2-|--------0--| 
|-0-----------|-----0-----| 
|-------------|---2-------| 
|-------------|-3---------| 


Esta canción se la dedico a mi madre que tanto la quiero 
y le agradezco el amor inmenso que me ha ofrecido 

               *** TE QUIERO MUCHO MAMI *** 
                   *** TU HIJO JULIO ***
	  

No existe una video leccione para esta canción

request
Aumentar uno tonoAumentar uno tono
Aumentar uno semi-tonoAumentar uno semi-tono
Disminuir uno semi-tonoDisminuir uno semi-tono
Disminuir uno tonoDisminuir uno semi-tono
LosAcordes
Buscar
auto avanzar rasgueos aumentar disminuir cambiar color esconder acordes gráficos
losacordes exhibir acordes losacordes youTube video losacordes ocultar tabs losacordes ir hacia arriba losacordes