A B C D E F G H I J K L M N O P Q R S T U V X Y Z 0-9
John Fogerty

Início > John Foger... > acordes

John Fogerty

Blueboy

Dificultad:FácilFácil

tuner corregir añadir para songbook version para impresion version de texto version rtf e-mail
acordestablaturabajobateríaarmónicaflautacavacopiano Guitar Pro
acordes

Blueboy

	   
Main riff 
E---------0---0---------3/4--0-------|-----------------------------------| 
B-----------3------------------------|-----------------------------------| 
G-----0-1-------1---0-1--------------|-----------------------------------| 
D---2-------------2------------------|-----------------------------------| 
A------------------------------------|-----------------------------------| 
e------------------------------------|-----------------------------------| 
 
Song is built like this: 
Play main riff 4 times (drums comes in on 2) 
Way back in the hills 
E------------------------------------|-----------------------------------| 
B------5-----------------------------|-----------------------------------| 
G--3/4----4-4-2-0h1------------------|-----------------------------------| 
D-------------------2----------------|-----------------------------------| 
A------------------------------------|-----------------------------------| 
e------------------------------------|-----------------------------------| 
 
There's a place I know 
E------------------------------------|-----------------------------------| 
B-----3------------------------------|-----------------------------------| 
G-3/4---2----------------------------|-----------------------------------| 
D----------2r0h2---------------------|-----------------------------------| 
A------------------------------------|-----------------------------------| 
e------------------------------------|-----------------------------------| 
 
People come from miles around 
E------------------------------------|-----------------------------------| 
B------3-----------------------------|-----------------------------------| 
G--3/4---2--2--0h1-------------------|-----------------------------------| 
D------------------2-----------------|-----------------------------------| 
A------------------------------------|-----------------------------------| 
e------------------------------------|-----------------------------------| 
 
Just to watch 'Ol Dooley do the show 
(this played over "do the show") 
E------------------------------------|-----------------------------------| 
B------------------------------------|-----------------------------------| 
G-------3b4r2------------------------|-----------------------------------| 
D------------2-----------------------|-----------------------------------| 
A------------------------------------|-----------------------------------| 
e------------------------------------|-----------------------------------| 
 
Refrain: 
Ooh let the blueboy play 
E--------11------9---5r4-------------|-----------------------------------| 
B---11h12---12---10--5---5---5-------|-----------------------------------| 
G-----------11---9---4-----4---------|-----------------------------------| 
D------------------------------------|-----------------------------------| 
A------------------------------------|-----------------------------------| 
e------------------------------------|-----------------------------------| 
Ooh let the blueboy play 
(this played over above) 
E--------11------9---5r4-------------|-----------------------------------| 
B---11h12---12---10--5---5---5-------|-----------------------------------| 
G-----------11---9---4-----4---------|-----------------------------------| 
D------------------------------------|-----------------------------------| 
A------------------------------------|-----------------------------------| 
e------------------------------------|-----------------------------------| 
 
Gonna ride the mule 
E--4-------4-------------------------|-----------------------------------| 
B--5-------5-------------5-----------|-----------------------------------| 
G--4-------4-----------4-------------|-----------------------------------| 
D--------------------6---------------|-----------------------------------| 
A------------------------------------|-----------------------------------| 
e------------------------------------|-----------------------------------| 
 
Gonna chase him too 
E-----5------------------------------|-----------------------------------| 
B-----5-----------------5------------|-----------------------------------| 
G-----6---------------6--------------|-----------------------------------| 
D-------------------7----------------|-----------------------------------| 
A------------------------------------|-----------------------------------| 
e------------------------------------|-----------------------------------| 
 
Pullin' on a pullin' on a pullin' on a pony he goes 
E-----7------------------------------|-----------------------------------| 
B-----7------------------------------|-----------------------------------| 
G-----8------------------------------|-----------------------------------| 
D------------------------------------|-----------------------------------| 
A------------------------------------|-----------------------------------| 
e------------------------------------|-----------------------------------| 
 
Play main riff twice here 
 
Verse 2: 
Soon's the sun go down 
E------------------------------------|-----------------------------------| 
B------------------------------------|-----------------------------------| 
G--4r3--4-2-0h1----------------------|-----------------------------------| 
D---------------2--------------------|-----------------------------------| 
A------------------------------------|-----------------------------------| 
e------------------------------------|-----------------------------------| 
That's when the fun begins 
E-----------7----7---0---------------|-----------------------------------| 
B---------8b9-x--8b9-------0---------|-----------------------------------| 
G----------------------0h1-----------|-----------------------------------| 
D------------------------------------|-----------------------------------| 
A------------------------------------|-----------------------------------| 
e------------------------------------|-----------------------------------| 
 
 
 
 
Hitch your wagon down the track 
E-----------------------------------7~-----------------------------------| 
B-------------------------------8/9--|-----------------------------------| 
G----------------------4-3-2-1-------|-----------------------------------| 
D------------------------------------|-----------------------------------| 
A------------------------------------|-----------------------------------| 
e------------------------------------|-----------------------------------| 
 
Up to the roadhouse and come on in 
E------------------------------------|-----------------------------------| 
B------------------------------------|-----------------------------------| 
G------------------------------------|-----------------------------------| 
D-------------------------------2-2-2-2----------------------------------| 
A------------------------------------|-----------------------------------| 
e------------------------------------|-----------------------------------| 
 
Play refrain here 
Then main riff twice 
 
Solo follows: 
E------------------------------------|----------------------------0------| 
B---------2b3~--0-------3-2----------|-----------------2b3~-0-4b5~-------| 
G--2/3b4~---------3b4~------2-0------|------0-2-0-3b4~-------------------| 
D-------------------------------2-0--|----2------------------------------| 
A-----------------------------------2-0----------------------------------| 
e------------------------------------|--0--------------------------------| 
 
E---------------0----0---------------|-------2---7-5b6~------------------| 
B-----------------3------------------|-2-2/4~--4--------6b7~-0---0-3-----| 
G-4r3r0-----0-1--------3b4~--2-0-----|-------------------------2---------| 
D-------0-2----------------------2---|-------------------------------0---| 
A------------------------------------|-----------------------------------| 
e------------------------------------|-----------------------------------| 
 
E-------0-------0-------0-----3-----7|-----9--0-0-0-0-0------------------| 
B-2b3-2---2b3r2---2-0h2---2/5---5/8--|8/10----3-3-3-3-3-5-----3----------| 
G------------------------------------|--------------------3/4---2-0------| 
D------------------------------------|------------------------------2-0-2| 
A------------------------------------|-----------------------------------| 
e------------------------------------|-----------------------------------| 
E--0-0-0-0-0-------------------------|-----------------------------------| 
B--3-3-3-3-3-5-----3-----------------|-----------------------------------| 
G--------------3/4---2-0-------------|-----------------------------------| 
D------------------------2-0-2r0h2r0h2r0h2-------------------------------| 
A------------------------------------|-----------------------------------| 
e------------------------------------|-----------------------------------| 
Ok, verse 3 begins 
Sherrif says it's late 
E----------------------7-------------|-----------------------------------| 
B----------------------9-------------|-----------------------------------| 
G----------------------9-------------|-----------------------------------| 
D------------------------------------|-----------------------------------| 
A------------------------------------|-----------------------------------| 
e------------------------------------|-----------------------------------| 
Closing time we got to go 
E-------------------------7----------|-----------------------------------| 
B-------------------------9----------|-----------------------------------| 
G-------------------------9----------|-----------------------------------| 
D------------------------------------|-----------------------------------| 
A------------------------------------|-----------------------------------| 
e------------------------------------|-----------------------------------| 
 
But Dooley he don't want to quit 
E--------------------------------7---|------7----------------------------| 
B--------------------------------9---|--7/9------------------------------| 
G--------------------------------9---|-----------------------------------| 
D------------------------------------|-----------------------------------| 
A------------------------------------|-----------------------------------| 
e------------------------------------|-----------------------------------| 
 
Ain't nobody feels like goin' home 
 
Play refrain here then main riff 4 times again 
 
 
_______________________________________________________ 
Contribuição: Robinson Soares Raffo(robinsonraffo@yahoo.com.br) 

	  

Solicitar el vídeo de "Blueboy" - Descargar Blueboy mp3

No existe una video leccione para esta canción

solicitar
140

Envie sus comentários.

0 comentários

 
LosAcordes
Buscar
auto avanzar rasgueos aumentar disminuir cambiar color esconder acordes gráficos
losacordes exhibir acordes losacordes youTube video losacordes ocultar tabs losacordes cambiar notación losacordes ir hacia arriba losacordes