A B C D E F G H I J K L M N O P Q R S T U V X Y Z 0-9
John Butler Trio

Início > John Butle... > acordes

John Butler Trio

Ocean

Dificultad:ExpertoExperto

tuner corregir añadir para songbook version para impresion version de texto version rtf e-mail
acordestablaturabajobateríaarmónicaflautacavacopiano Guitar Pro
acordes

Ocean

	  			   Music by John Butler 
	          From the self-titled album by John Butler  
 
Tabbed by - Giles Bruce, gb@ie.com.au 
 
In this 12 minute instrumental, John pickes and uses his thumb continually in  
different combinations for the basic notes below. This is close... 
 
 
E-------2-3-5-3-2-----2-3-5-3-2------------33-33---22-22--2-3-2--------------- 
C---2-3-----------3-2-----------3-3-3-3----33-33---33-33--------3-2-3-3-3-3--- 
G-2-------------------------------2-2-2----22-22---22-22--------------2-2-2--- 
C----------------------------------------------------------------------------- 
G----------------------------------------------------------------------------- 
C----------------------------------------------------------------------------- 
 
E-55--55--3--22--22--2-3-2--------------5h7p5h7p5h7p5h7p5h7--------------------------- 
C-33--33--3--33--33--------3-2-3-3-3-3--5---5---5---5---5---7--7-7-7/5-5-5-2---------- . 
G---------2--22--22--------------2-2-2-------------------------x-x-x/x-x-x-3---------- 
C--------------------------------------------------------------4-4-4/2-2-2------------ . 
G------------------------------------------------------------------------------------- 
C------------------------------------------------------------------------------------- 
 
If you want to fix, please email mail@johnbutlertrio.com first as well as me at  
gb@ie.com.au 
 
Send them to mail@johnbutlertrio.com 
http://www.johnbutlertrio.com 
 
 

	  

Solicitar el vídeo de "Ocean" - Descargar Ocean mp3

No existe una video leccione para esta canción

solicitar
140

Envie sus comentários.

0 comentários

 
LosAcordes
Buscar
auto avanzar rasgueos aumentar disminuir cambiar color esconder acordes gráficos
losacordes exhibir acordes losacordes youTube video losacordes ocultar tabs losacordes cambiar notación losacordes ir hacia arriba losacordes