A B C D E F G H I J K L M N O P Q R S T U V X Y Z 0-9
Joe Satriani

Início > Joe Satria... > acordes

Joe Satriani

Ten Words

Dificultad:PrincipiantePrincipiante

tuner corregir añadir para songbook version para impresion version de texto version rtf e-mail
acordestablaturabajobateríaarmónicaflautacavacopiano Guitar Pro
acordes

Ten Words

Tono:  C Más
Ten Words Tono F#F#
Ten Words Tono GG
Ten Words Tono G#G#
Ten Words Tono AA
Ten Words Tono A#A#(Disminuir uno tono)
Ten Words Tono BB(Disminuir uno semi-tono)
Ten Words Tono CC(tono original)
Ten Words Tono C#C#(Aumentar uno semi-tono)
Ten Words Tono DD(Aumentar uno tono)
Ten Words Tono D#D#
Ten Words Tono EE
Ten Words Tono FF
	  Joe Lead 
Tempo = 90 

 
Essa Letras acima da tablatura não são acordes, vamos dizer q notas com seus respectivos tempos lá embaixo na legenda explica com mais detalhes Valew Um abração 
Henry 
 
     W                   W                     Q     E  E  E  E  E  E    
E||-------------------|-------------------|----------------------------| 
B||-------------------|-------------------|----------------------------| 
G||-------------------|-------------------|----------------------------| 
D||-------------------|-------------------|----------5--5--5--5--x--5--| 
A||-------------------|-------------------|--5g7~----------------------| 
E||-------------------|-------------------|----------------------------| 
 
 
  E    Q    E    E  E  E   E      Q     E  E  E    E  E    E     
-------------------------------|-------------------------------| 
-------------------------------|-------------------------------| 
-------------------------------|-------------------------------| 
-------------------------------|-------------------------------| 
-----5g7-------7g5--3--5-------|--3~----3-----3--5g7-----5g7~--| 
--------------------------(5)--|-----------5-------------------| 
 
 
  W                     Q    E  E  E  E    E   E    
-------------------|------------------------------| 
-------------------|------------------------------| 
-------------------|------------------------------| 
-------------------|---------------------5g7s--5--| 
--L----------------|--5g7----7--5--7--x-----------| 
-------------------|------------------------------| 
 
 
  E  E    E   Q     E  E   E      Q    E  E  E    E  E    E     
-------------------------------|------------------------------| 
-------------------------------|------------------------------| 
-------------------------------|------------------------------| 
--L----------------------------|------------------------------| 
--------5g7s--5~----3--5-------|--3----3-----3--3g5-----3g5~--| 
--------------------------(5)--|----------5-------------------| 
 
 
  W                     Q     Q     Q     E  E     E  E  E  Q.      E  E    
-------------------|----------------------------|-------------------------| 
-------------------|----------------------------|-------------------------| 
-------------------|----------------------------|-------------------------| 
-------------------|----------------------------|-------------------------| 
--L----------------|--5g7~----7~----7~----5--3--|--5--3-----3~---------3--| 
-------------------|----------------------------|--------5----------5-----| 
 
 
    Q      E  Q     E    E   E      W                   Q.      Q.      Q       
---------------------------------|-------------------|------------------------| 
---------------------------------|-------------------|------------------------| 
---------------------------------|-------------------|------------------------| 
---------5g7--5~-----------------|-------------------|----------5~------------| 
--5g7---------------x--5g7s--3~--|--L----------------|--3~--------------3~----| 
---------------------------------|-------------------|------------------------| 
 
 
  Q.      Q.      Q        Q.      Q.        Q          W                   
------------------------|--------------------------|----------------------| 
------------------------|--------------------------|----------------------| 
------------------------|--------------------------|----------------------| 
----------5~------------|--------------------------|----------------------| 
--2~--------------2~----|----------3~------3g5~----|--5g3~----------------| 
------------------------|--5~----------------------|----------------------| 
 
 
   Q.       Q.       Q        Q.       Q.      Q       
---------------------------|-------------------------| 
---------------------------|-------------------------| 
-----------12~-------------|----------12~------------| 
--10~---------------10~----|--9~---------------9~----| 
---------------------------|-------------------------| 
---------------------------|-------------------------| 
 
 
   Q.       Q.          Q            W                   
------------------------------|------------------------| 
------------------------------|------------------------| 
------------------------------|------------------------| 
-----------10~------10g12~----|--12g10~----------------| 
--12~-------------------------|------------------------| 
------------------------------|------------------------| 
 
 
    Q     E  E  E  E  E  E     E    Q    E    E  E  E   E     
----------------------------|-------------------------------| 
----------8--8--8--8--x--8--|-------------------------------| 
--5g9~----------------------|-----5g9-------7g7--5--7-------| 
----------------------------|--------------------------(7)--| 
----------------------------|-------------------------------| 
----------------------------|-------------------------------| 
 
 
  Q     E  E  E    E  E    E     W                  
------------------------------|-------------------| 
-----------------6g8--L--6g8--|--L----------------| 
--5~----5-----5--7g9--L--7g9--|--L----------------| 
-----------7------------------|-------------------| 
------------------------------|-------------------| 
------------------------------|-------------------| 
 
 
    Q    E  E  E  E     E   E     E  E    E   Q     E  E   E     
-------------------------------|-------------------------------| 
---------------------8g10s--8--|--L----------------------------| 
--7g9----9--7--9--x------------|--------7g9s--7~----5--7-------| 
-------------------------------|--------------------------(7)--| 
-------------------------------|-------------------------------| 
-------------------------------|-------------------------------| 
 
 
  Q    E  E  E    E  E    E      W                     Q     Q     Q     E  E    
------------------------------|-------------------|----------------------------| 
------------------------------|-------------------|----------------------------| 
--5----5-----5--5g7-----5g7~--|--L----------------|--7g9~----9~----9~----7--5--| 
----------7-------------------|-------------------|----------------------------| 
------------------------------|-------------------|----------------------------| 
------------------------------|-------------------|----------------------------| 
 
 
  E  E  E  Q.      E  E       Q       E  Q     E    E   E     
-------------------------|----------------------------------| 
-------------------------|---------8g10--8~-----------------| 
--7--5-----5~---------5--|--7g9----------------x--7g9s--5~--| 
--------7----------7-----|----------------------------------| 
-------------------------|----------------------------------| 
-------------------------|----------------------------------| 
 
 
  W                    Q.       Q.       Q        Q.       Q.      Q       
-------------------|---------------------------|-------------------------| 
-------------------|---------------------------|-------------------------| 
--L----------------|-----------12~-------------|----------12~------------| 
-------------------|--10~---------------10~----|--9~---------------9~----| 
-------------------|---------------------------|-------------------------| 
-------------------|---------------------------|-------------------------| 
 
 
   Q.       Q.          Q            W                   
------------------------------|------------------------| 
------------------------------|------------------------| 
------------------------------|------------------------| 
-----------10~------10g12~----|--12g10~----------------| 
--12~-------------------------|------------------------| 
------------------------------|------------------------| 
 
 
  H        S S S S S S S S    S S E  S S E  Q    E  E    
-----------5---------------|---------------------------| 
-------------8-5---5-------|---------------------------| 
-----------------7---7-5---|--7---5--------------5-----| 
--L----------------------7-|----7----7-5-7--L----------| 
---------------------------|---------------------------| 
---------------------------|---------------------------| 
 
 
  E  S S S S S S S S S S S S  S S    S  S S Q     E.  S S S  S S S   
-----5--------------------------5-|-----5---8b----L---8---8p-7---7-| 
-------8-5---5----------------5---|--8b---5-------------8------8---| 
-----------7---5-7-5---7-5-7b-----|--------------------------------| 
---------------------7------------|--------------------------------| 
----------------------------------|--------------------------------| 
----------------------------------|--------------------------------| 
 
 
  S   S  Q     E  E   S   S  S  S   S  S   
-----------------------------------------| 
--8s-10-10~----8-------------------------| 
--------------------------------------12-| 
----------------------------10-12s-14----| 
---------------------10h-12--------------| 
-----------------------------------------| 
 
 
   S   S   S   S  Q       S   S  E.    E.     
--------------------------------------------| 
-----------------12b~-----------15b---15b---| 
--14p-12h-14p-12---------14p-12-------------| 
--------------------------------------------| 
--------------------------------------------| 
--------------------------------------------| 
 
 
   E.    S  E      E   E    E   E      E    
--------15-----------------15-------------| 
--15b----L-15pbr--13--15b---L--15pbr--13--| 
------------------------------------------| 
------------------------------------------| 
------------------------------------------| 
------------------------------------------| 
 
 
      Q.       S   S   S   S  S  S  Q       
------------------------------------------| 
--13g15~------13p-10h-13p-10----10--------| 
-----------------------------12----12~----| 
------------------------------------------| 
------------------------------------------| 
------------------------------------------| 
 
 
      |---3---|                                       
   S  S   S   S  S  S  S S  S  S  S  S S  S S  S  S   
----------------------------------------------------| 
--12-13p-12p-10-12-10-------------------------------| 
----------------------12-9--------------------------| 
---------------------------12-10-12-10-9-10-9----10-| 
----------------------------------------------12----| 
----------------------------------------------------| 
 
 
      S  S  S   S  S  S  S  S  S  S  S  S  S  S  S  S   
---------------------15-15-15-15-17-17-17-17-19-19-19-| 
------------------17----------------------------------| 
--------12-14s-17-------------------------------------| 
--12g14-----------------------------------------------| 
------------------------------------------------------| 
------------------------------------------------------| 
 
 
   S  S   Q      E   E   S  S  Q       
--19-19b-17~----17\-----17----20b----| 
---------------------------17--------| 
-------------------------------------| 
-------------------------------------| 
-------------------------------------| 
-------------------------------------| 
 
 
                         |--3--|      |--3--|       
  S  S  S  S  S  Q       S  S  S  S.  S  S  S  S.   
--L-20-17----17---------17-----------17-----------| 
----------20----20b~-------20-17--------20-17-----| 
---------------------------------19b----------19b-| 
--------------------------------------------------| 
--------------------------------------------------| 
--------------------------------------------------| 
 
 
   |--3--|  |--3--|   |---3--|  |--3--|  |--3--|  |--3--|  |--3--|  3  3   
   S  S  S  S  S  S   S   S  S  S  S  S  S  S  S  S  S  S  S  S  S  S. S.  
--17---------------------------------------------------------------------| 
-----20-17----17---------------------------------------------------------| 
-----------20----20p-19p-17----19----17----------------------------------| 
----------------------------19----19----19-17----------------------------| 
----------------------------------------------19-17-15-17-15----15-17-15-| 
-------------------------------------------------------------17----------| 
 
 
             |--3--|  |--3--|  |--3--|  |--3--|  |--3--|  |--3--|   
      Q      S  S  S  S  S  S  S  S  S  S  S  S  S  S  S  S  S  S   
------------------------------------------------------------------| 
------------------------------------------------------------------| 
------------------------------------------------------------------| 
------------17--L-17--L-17--L-17--L-17--L-17--L-17--L-17--L-17--L-| 
--17g19~-------19--L-19--L-19--L-19--L-19--L-19--L-19--L-19--L-19-| 
------------------------------------------------------------------| 
 
 
   E       S  S  S  S  S S  E      S  S  S  S  E      
----------------------------------------------------| 
----------------------------------------------------| 
----------------------------------------------------| 
--17~-----------------------------------------------| 
-------19g17-15-17-15------15--19g17-15-17-15-14br--| 
----------------------17----------------------------| 
 
 
  E.   S  Q     E  E   E.   S    E  Q    H        E    
------------------------------|----------------------| 
------------------------------|----------------------| 
------------------------------|----------------------| 
------------------------------|-----5----5--------L--| 
--L--------------------2b-----|--5--5----5--------L--| 
------15-15~----L--7\-------3-|--3-------------------| 
 
 
    Q     E  E  E  E  E  E     E    Q    E    E  E  E   E     
----------------------------|-------------------------------| 
----------------------------|-------------------------------| 
----------------------------|-------------------------------| 
----------5--5--5--5--x--5--|-------------------------------| 
--5g7~----------------------|--x--5g7----x--7g5--3--5-------| 
----------------------------|--------------------------(5)--| 
 
 
  Q     E  E  E    E  E    E      W                  
-------------------------------|-------------------| 
-------------------------------|-------------------| 
-------------------------------|-------------------| 
-------------------------------|-------------------| 
--3~----3-----3--5g7--x--5g7~--|--L----------------| 
-----------5-------------------|-------------------| 
 
 
    Q    E  E  E  E    E   E     E  E    E   Q     E  E   E     
------------------------------|-------------------------------| 
------------------------------|-------------------------------| 
------------------------------|-------------------------------| 
---------------------5g7s--5--|--L----------------------------| 
--5g7----7--5--7--x-----------|-----x--5g7s--5~----3--5-------| 
------------------------------|--------------------------(5)--| 
 
 
  Q    E  E  E    E  E    E      W                     Q     Q     Q     E  E    
------------------------------|-------------------|----------------------------| 
------------------------------|-------------------|----------------------------| 
------------------------------|-------------------|----------------------------| 
------------------------------|-------------------|----------------------------| 
--3----3-----3--3g5-----3g5~--|--L----------------|--5g7~----7~----7~----5--3--| 
----------5-------------------|-------------------|----------------------------| 
 
 
  E  E  E  Q.      E  E       Q      E  Q     E    E   E      W                  
-------------------------|---------------------------------|-------------------| 
-------------------------|---------------------------------|-------------------| 
-------------------------|---------------------------------|-------------------| 
-------------------------|---------5g7--5~-----------------|-------------------| 
--5--3-----3~---------3--|--5g7---------------x--5g7s--3~--|--L----------------| 
-------------------5-----|---------------------------------|-------------------| 
 
 
  Q.      Q.      Q        Q.      Q.      Q        Q.      Q.        Q       
------------------------|------------------------|--------------------------| 
------------------------|------------------------|--------------------------| 
------------------------|------------------------|--------------------------| 
----------5~------------|----------5~------------|--------------------------| 
--3~--------------3~----|--2~--------------2~----|----------3~------3g5~----| 
------------------------|------------------------|--5~----------------------| 
 
 
    W                     Q.       Q.       Q        Q.       Q.      Q       
----------------------|---------------------------|-------------------------| 
----------------------|---------------------------|-------------------------| 
----------------------|-----------12~-------------|----------12~------------| 
----------------------|--10~---------------10~----|--9~---------------9~----| 
--5g3~----------------|---------------------------|-------------------------| 
----------------------|---------------------------|-------------------------| 
 
 
   Q.       Q.          Q            W                    
------------------------------|------------------------|| 
------------------------------|------------------------|| 
------------------------------|------------------------|| 
-----------10~------10g12~----|--12g10~----------------|| 
--12~-------------------------|------------------------|| 
------------------------------|------------------------|| 
 
 
Legendas: 
 
 
Duração (Tempo) 
--------------- 
W - whole - Inteiro 
H - half - Metade 
Q - quarter - Um Quarto 
E - 8th       . 
S - 16th      . 
T - 32nd      . 
X - 64th 
. - note dotted 
|-n-|  - n-tuplets 
 
 
Legenda 
---------------- 
L - tied note 
x - dead note 
g - grace note 
(n) - ghost note 
> - accentuded note 
NH - natural harmonic 
AH - artificial harmonic 
TH - tapped harmonic 
SH - semi harmonic 
PH - pitch harmonic 
h - hammer on 
p - pull off 
b - bend 
br - bendRelease 
pb - preBend 
pbr - preBendRelease 
brb - bendReleaseBend 
\n/ - tremolo bar dip 
\n - tremolo bar dive 
-/n - tremolo bar Release up 
/n\ - tremolo bar inverted dip 
/n - tremolo bar return 
-\n - tremolo bar Release down 
S - shift slide 
s - legato slide 
/ -  slide into from below or out of upwards 
\ -  slide into from above or out of downwards 
~ - vibrato 
W - wide vibrato 
tr - trill 
TP - tremolo picking 
T - tapping 
S - slap 
P - pop 
< - fade in 
^ - brush up 
v - brush down 

	  

Solicitar el vídeo de "Ten Words" - Descargar Ten Words mp3

No existe una video leccione para esta canción

solicitar
140

Envie sus comentários.

0 comentários

 
LosAcordes
Buscar
auto avanzar rasgueos aumentar disminuir cambiar color esconder acordes gráficos
losacordes exhibir acordes losacordes youTube video losacordes ocultar tabs losacordes cambiar notación losacordes ir hacia arriba losacordes