A B C D E F G H I J K L M N O P Q R S T U V X Y Z 0-9
Joe Satriani

Início > Joe Satria... > acordes

Joe Satriani

Motorcycle Driver

Dificultad:ExpertoExperto

tuner corregir añadir para songbook version para impresion version de texto version rtf e-mail
acordestablaturabajobateríaarmónicaflautacavacopiano Guitar Pro
acordes

Motorcycle Driver

	   
-==Versão 1:==- 
 
Gtr I (E A D G B E) - 'Joe Satriani' 
Gtr II (E A D G B E) - 'Joe Satriani' 
Gtr III (E A D G B E) - 'Joe Satriani' 
Gtr IV (E A D G B E) - 'Joe Satriani' 
 
  Moderate Rock Q=166 
 4/4 
  Gtr I 
  PM| ~        PM|                   PM| ~        PM| 
  E E Q  +E  E E E   Q.   E E E Q    E E Q  +E  E E E   Q.   E E E E E 
|------------------|---------------|------------------|----------------| 
|------------------|---------------|------------------|----------------| 
|------------7-----|-6----0-6------|------------7-----|-6----0-6-------| 
|-----5--(5)-------|-7----0---7----|-----5--(5)-------|-7----0---7-----| 
|------------------|------------7--|------------------|------------7-7-| 
|-0-0----------0-0-|---------------|-0-0----------0-0-|----------------| 
 
 
  PM| ~        PM| 
  E E Q  +E  E E E   Q.   E E E Q 
|------------------|---------------| 
|------------------|---------------| 
|------------7-----|-6----0-6------| 
|-----5--(5)-------|-7----0---7----| 
|------------------|------------7--| 
|-0-0----------0-0-|---------------| 
 
 
  PM|                      PM| ~        PM| 
  E E Q  H      W          E E Q  +E  E E E   Q.   E E E Q 
|-------------|----------|------------------|---------------| 
|-------------|----------|------------------|---------------| 
|-------------|----------|------------7-----|-6----0-6------| 
|-------------|----------|-----5--(5)-------|-7----0---7----| 
|-------------|----------|------------------|------------7--| 
|-0-0---------|----------|-0-0----------0-0-|---------------| 
 
 
  PM| ~        PM|                    PM| ~        PM| 
  E E Q  +E  E E E   Q.   E E E E E   E E Q  +E  E E E   Q.   E E E Q 
|------------------|----------------|------------------|---------------| 
|------------------|----------------|------------------|---------------| 
|------------7-----|-6----0-6-------|------------7-----|-6----0-6------| 
|-----5--(5)-------|-7----0---7-----|-----5--(5)-------|-7----0---7----| 
|------------------|------------7-7-|------------------|------------7--| 
|-0-0----------0-0-|----------------|-0-0----------0-0-|---------------| 
 
 
  E E Q  E  E   E   E    Q  E E E E E E    +W           +H     Q  Q 
|----------------------|----------------||------------|----------------| 
|----------------------|----------------||------------|----------------| 
|----------------------|--------7-9-----||------------|----------------| 
|----------------------|------9-7-9---9-||-(9)--------|-(9)------------| 
|----------<7>-----<7>-|------9-5-7---9-||-(9)--------|-(9)----xs=x\---| 
|-0-0----------<4>-----|------7-------7-||-(7)--------|-(7)----xs=x\---| 
 
 
    S    S    S    S    S    S    S    S   S  S  S  S  S  S  S  S 
|-----------------------------------------------------------------| 
|-----------------------------------------------------------------| 
|-----------------------------------------18p16p14h16p14----------| 
|---------------------<16>-<16>--------------------------16p14h16p| 
|-----------<17>-<17>---------------------------------------------| 
|-<17>-<17>---------------------<17>-<17>-------------------------| 
 
 
   |--3--| 
   E  E  E  S  S  S  S  S  S  S  S S  S S  S 
|---------------------------------------------|| 
|---------------------------------------------|| 
|---------------------------------------------|| 
|-14----------------------14----13---11---10--|| 
|----16s14-12-12------------------------------|| 
|----------------16-14-12----11----9----8-----|| 
 
 
  Gtr II 
                                                            ~ 
  Q  Q   Q  Q      E     +Q   E +H          Q  Q   Q  Q     W 
|---------------|-------------------------|---------------|-----------------| 
|---------------|-------------------------|---------------|-----------------| 
|---------------|-------------------------|---------------|-----------------| 
|-7------9------|-11b12r(11)--9-(9)-------|-7------9------|-9---------------| 
|---------------|-------------------------|---------------|-----------------| 
|---------------|-------------------------|---------------|-----------------| 
| 
| Gtr I 
|    PM|    PM|                     PM--|      PM|    PM|      PM--------| 
| Q  E E Q  E E    E      Q   E +E  E E E   Q  E E Q  E E   Q  E E E E E E 
|---------------|-------------------------|---------------|-----------------| 
|---------------|-------------------------|---------------|-----------------| 
|---------------|-------------------------|---------------|-----------------| 
|-7------9------|-12-----11---9-(9)-------|-7------9------|-9---------------| 
|--------9------|--7----------9-(9)-------|-0--0-0-0--0-0-|-7---------------| 
|-7--7-7-7--7-7-|--7----------7-(7)-7-7-7-|---------------|-0--0-0-0-0-0-0--| 
 
 
  Q  Q   Q  Q      E     +Q   E +H 
|---------------|-------------------------| 
|---------------|-------------------------| 
|---------------|-------------------------| 
|-7------9------|-11b12r(11)--9-(9)-------| 
|---------------|-------------------------| 
|---------------|-------------------------| 
| 
|    PM|    PM|                     PM--| 
| Q  E E Q  E E    E      Q   E +E  E E E 
|---------------|-------------------------| 
|---------------|-------------------------| 
|---------------|-------------------------| 
|-7------9------|-12-----11---9-(9)-------| 
|--------9------|--7----------9-(9)-------| 
|-7--7-7-7--7-7-|--7----------7-(7)-7-7-7-| 
 
 
                      ~~~~~~~~~~~~ 
  Q  Q   Q  Q      E  Q.      +H 
|---------------|------------------------| 
|---------------|------------------------| 
|---------------|------------------------| 
|-7------9------|------------------------| 
|---------------|--9h11------(11)--------| 
|---------------|------------------------| 
| 
|    PM|    PM|          PM-----------| 
| Q  E E Q  E E    Q     E E   E  E E E 
|---------------|------------------------| 
|---------------|------------------------| 
|---------------|------------------------| 
|-7------9------|------------------------| 
|-0--0-0-0--0-0-|-11---------------------| 
|---------------|--0-----0-0---0--0-0-0--| 
 
 
                                                               ~ 
  Q  Q   E E Q      E     +Q   E +H          Q  Q   E  E Q     W 
|----------------|-------------------------|-----------------|-----------------| 
|----------------|-------------------------|-----------------|-----------------| 
|----------------|-------------------------|-----------------|-----------------| 
|-7------9-9-----|-11b12r(11)--9-(9)-------|-7------9s11-----|-9---------------| 
|----------------|-------------------------|-----------------|-----------------| 
|----------------|-------------------------|-----------------|-----------------| 
| 
|    PM|     PM|                     PM--|      PM|      PM|      PM--------| 
| Q  E E Q   E E    E      Q   E +E  E E E   Q  E E E  E E E   Q  E E E E E E 
|----------------|-------------------------|-----------------|-----------------| 
|----------------|-------------------------|-----------------|-----------------| 
|----------------|-------------------------|-----------------|-----------------| 
|-7------9-------|-12-----11---9-(9)-------|-7------9s11-----|-9---------------| 
|--------9-------|--7----------9-(9)-------|-0--0-0-0----0-0-|-7---------------| 
|-7--7-7-7---7-7-|--7----------7-(7)-7-7-7-|-----------------|-0--0-0-0-0-0-0--| 
 
 
                                                        ~ 
  Q  Q   Q  Q     E E E E +H          Q  Q   E  E Q     W 
|---------------|-------------------|-----------------|-----------------|| 
|---------------|-------------------|-----------------|-----------------|| 
|---------------|-7-9---------------|-----------------|-----------------|| 
|-7------9------|-------9-(9)-------|-7------9s11-----|-9---------------|| 
|---------------|-------------------|-----------------|-----------------|| 
|---------------|-------------------|-----------------|-----------------|| 
| 
|    PM|    PM|               PM--|      PM|      PM|      PM--------| 
| Q  E E Q  E E   E Q   E  E  E E E   Q  E E E  E E E   Q  E E E E E E 
|---------------|-------------------|-----------------|-----------------|| 
|---------------|-------------------|-----------------|-----------------|| 
|---------------|-7-9---------------|-----------------|-----------------|| 
|-7------9------|-------9-(9)-9-----|-7------9s11-----|-9---------------|| 
|-7------7------|-7-7---7--7--7-----|-0--0-0-0----0---|-9---------------|| 
|-0--0-0-0--0-0-|-------0-(0)-0-0-0-|---------------7-|-7--7-7-7-7-7-7--|| 
 
 
  Gtr II 
   Q  Q    Q  Q      E     +Q    E  +H 
|-----------------|---------------------------| 
|-----------------|---------------------------| 
|-----------------|---------------------------| 
|--7-------9------|-11b12r(11)---9--(9)-------| 
|-----------------|---------------------------| 
|-----------------|---------------------------| 
| 
| Gtr III 
|  Q  Q    Q  Q      E     +Q    E  +H 
|-----------------|---------------------------| 
|-10------12------|-14b15r(14)--12-(12)-------| 
|-----------------|---------------------------| 
|-----------------|---------------------------| 
|-----------------|---------------------------| 
|-----------------|---------------------------| 
| 
| Gtr I 
|     PM|     PM|                       PM--| 
|  Q  E E  Q  E E    E      Q    E  +E  E E E 
|-----------------|---------------------------| 
|-----------------|---------------------------| 
|-----------------|---------------------------| 
|--7-------9------|-12-----11----9--(9)-------| 
|----------9------|--7-----------9--(9)-------| 
|--7--7-7--7--7-7-|--7-----------7--(7)-7-7-7-| 
 
 
                     ~~ 
   Q  Q    Q  Q      W 
|-----------------|------------------| 
|-----------------|------------------| 
|-----------------|------------------| 
|--7-------9------|--9---------------| 
|-----------------|------------------| 
|-----------------|------------------| 
| 
|                    ~~ 
|  Q  Q    Q  Q      W 
|-----------------|------------------| 
|-10------12------|-12---------------| 
|-----------------|------------------| 
|-----------------|------------------| 
|-----------------|------------------| 
|-----------------|------------------| 
| 
|     PM|     PM|       PM--------| 
|  Q  E E  Q  E E    Q  E E E E E E 
|-----------------|------------------| 
|-----------------|------------------| 
|-----------------|------------------| 
|--7-------9------|--9---------------| 
|--0--0-0--0--0-0-|--7---------------| 
|-----------------|--0--0-0-0-0-0-0--| 
 
 
   Q  Q    Q  Q      E     +Q    E  +H 
|-----------------|---------------------------| 
|-----------------|---------------------------| 
|-----------------|---------------------------| 
|--7-------9------|-11b12r(11)---9--(9)-------| 
|-----------------|---------------------------| 
|-----------------|---------------------------| 
| 
|  Q  Q    Q  Q      E     +Q    E  +H 
|-----------------|---------------------------| 
|-10------12------|-14b15r(14)--12-(12)-------| 
|-----------------|---------------------------| 
|-----------------|---------------------------| 
|-----------------|---------------------------| 
|-----------------|---------------------------| 
| 
|     PM|     PM|                       PM--| 
|  Q  E E  Q  E E    E      Q    E  +E  E E E 
|-----------------|---------------------------| 
|-----------------|---------------------------| 
|-----------------|---------------------------| 
|--7-------9------|-12-----11----9--(9)-------| 
|----------9------|--7-----------9--(9)-------| 
|--7--7-7--7--7-7-|--7-----------7--(7)-7-7-7-| 
 
 
                          ~~~~~~~~~~~~ 
   Q  Q    E  E Q      E  Q.      +H 
|-------------------|------------------------| 
|-------------------|------------------------| 
|-------------------|------------------------| 
|--7-------9--9-----|------------------------| 
|-------------------|--9h11------(11)--------| 
|-------------------|------------------------| 
| 
|                         ~~~~~~~~~~~~ 
|  Q  Q    E  E Q      E  Q.      +H 
|-------------------|------------------------| 
|-10------12-12-----|------------------------| 
|-------------------|-11h13------(13)--------| 
|-------------------|------------------------| 
|-------------------|------------------------| 
|-------------------|------------------------| 
| 
|     PM|       PM|          PM-----------| 
|  Q  E E  Q    E E    Q     E E   E  E E E 
|-------------------|------------------------| 
|-------------------|------------------------| 
|-------------------|------------------------| 
|--7-------9--------|------------------------| 
|--0--0-0--0----0-0-|-11---------------------| 
|-------------------|--0-----0-0---0--0-0-0--| 
 
 
   Q  Q    Q  Q      E     +Q    E  +H 
|-----------------|---------------------------| 
|-----------------|---------------------------| 
|-----------------|---------------------------| 
|--7-------9------|-11b12r(11)---9--(9)-------| 
|-----------------|---------------------------| 
|-----------------|---------------------------| 
| 
|  Q  Q    Q  Q      E     +Q    E  +H 
|-----------------|---------------------------| 
|-10------12------|-14b15r(14)--12-(12)-------| 
|-----------------|---------------------------| 
|-----------------|---------------------------| 
|-----------------|---------------------------| 
|-----------------|---------------------------| 
| 
|     PM|     PM|                       PM--| 
|  Q  E E  Q  E E    E      Q    E  +E  E E E 
|-----------------|---------------------------| 
|-----------------|---------------------------| 
|-----------------|---------------------------| 
|--7-------9------|-12-----11----9--(9)-------| 
|----------9------|--7-----------9--(9)-------| 
|--7--7-7--7--7-7-|--7-----------7--(7)-7-7-7-| 
 
 
                       ~~ 
   Q  Q    E  E Q      W 
|-------------------|------------------| 
|-------------------|------------------| 
|-------------------|------------------| 
|--7-------9s11-----|--9---------------| 
|-------------------|------------------| 
|-------------------|------------------| 
| 
|                      ~~ 
|  Q  Q    E  E Q      W 
|-------------------|------------------| 
|-10------12s14-----|-12---------------| 
|-------------------|------------------| 
|-------------------|------------------| 
|-------------------|------------------| 
|-------------------|------------------| 
| 
|     PM|       PM|       PM--------| 
|  Q  E E  E  E E E    Q  E E E E E E 
|-------------------|------------------| 
|-------------------|------------------| 
|-------------------|------------------| 
|--7-------9s11-----|--9---------------| 
|--0--0-0--0----0-0-|--7---------------| 
|-------------------|--0--0-0-0-0-0-0--| 
 
 
   Q  Q    Q  Q      E  E E  E  +H 
|-----------------|-----------------------| 
|-----------------|-----------------------| 
|-----------------|--7--9-----------------| 
|--7-------9------|----------9--(9)-------| 
|-----------------|-----------------------| 
|-----------------|-----------------------| 
| 
|  Q  Q    Q  Q      E  E E  E  +H 
|-----------------|-10-12-----------------| 
|-10------12------|---------12-(12)-------| 
|-----------------|-----------------------| 
|-----------------|-----------------------| 
|-----------------|-----------------------| 
|-----------------|-----------------------| 
| 
|     PM|     PM|                   PM--| 
|  Q  E E  Q  E E    E  Q    E   E  E E E 
|-----------------|-----------------------| 
|-----------------|-----------------------| 
|-----------------|--7--9-----------------| 
|--7-------9------|----------9--(9)-9-----| 
|--7-------7------|--7--7----7---7--7-----| 
|--0--0-0--0--0-0-|----------0--(0)-0-0-0-| 
 
 
                         ~~~ 
   Q  Q    E  E Q        W 
|---------------------|---------------|| 
|---------------------|---------------|| 
|---------------------|---------------|| 
|--7-------9s11-------|--9------------|| 
|---------------------|---------------|| 
|---------------------|---------------|| 
| 
|                        ~~~ 
|  Q  Q    E  E Q        W 
|---------------------|---------------|| 
|-10------12s14-------|-12------------|| 
|---------------------|---------------|| 
|---------------------|---------------|| 
|---------------------|---------------|| 
|---------------------|---------------|| 
| 
|     PM| 
|  Q  E E  E  E E S S    Q.   E  H 
|---------------------|---------------|| 
|---------------------|---------------|| 
|---------------------|---------------|| 
|--7-------9s11---7-7-|--7h===9--9----|| 
|--0--0-0--0----0-7-7-|--7h===9--9----|| 
|-----------------7-7-|--7---(7)-7----|| 
 
 
  Gtr II 
   ~~                                  ~~~~~~~~ 
   H     +E   Q   E       +Q    E  E  +H 
|-14----(14)-16--16b17r|=(16)p=14-------------| 
|----------------------|----------17-(17)-----| 
|----------------------|----------------------| 
|----------------------|----------------------| 
|----------------------|----------------------| 
|----------------------|----------------------| 
| 
| Gtr I 
|  H     +E   Q   E       +H..              E 
|----------------------|----------------------| 
|--7-----(7)--7---9----|--(9)---------------9-| 
|--7-----(7)--7---9----|--(9)---------------9-| 
|--7-----(7)--7---9----|--(9)---------------9-| 
|--5-----(5)--5---5----|--(5)---------------7-| 
|----------------------|----------------------| 
 
 
 ~~~~~~                                    ~~~~~~~~~~ 
   +E   E  E  E  E     +E   E  E    E     +Q.    +H 
|---------14-16-16b17r(16)p14----|----------------------| 
|-(17)-17---------------------17-|-17b19-(17)---(17)----| 
|--------------------------------|----------------------| 
|--------------------------------|----------------------| 
|--------------------------------|----------------------| 
|--------------------------------|----------------------| 
| 
|   E   E  E  E  E      E   E  E    W 
|-------------4--4------4--------|----------------------| 
|---9---9-----5--5------5------7-|--7-------------------| 
|---9---9-----4--4------4------7-|--7-------------------| 
|---9---9-----7--7------7------7-|--7-------------------| 
|---7---7-----4--4------4------5-|--5-------------------| 
|--------------------------------|----------------------| 
 
 
   ~~~~~~~~~~~~                           ~~~~~~~ 
   H       +E   E  +S   E.      E   E  E  E  +Q.    E 
|----------------------------|----------------------------| 
|----------------------------|---------------------15b17==| 
|-11------(11)-13-(13)-14----|-14s=16-14-13-(13)----------| 
|----------------------------|----------------------------| 
|----------------------------|----------------------------| 
|----------------------------|----------------------------| 
| 
|  H..                     E   +H..                 E 
|----------------------------|----------------------------| 
|--7-----------------------9-|-(9)------------------9-----| 
|--7-----------------------9-|-(9)------------------9-----| 
|--7-----------------------9-|-(9)------------------9-----| 
|--5-----------------------5-|-(5)------------------7-----| 
|----------------------------|----------------------------| 
 
 
                                                      ~~~ 
   +E   +E   E  E  S   S  E  E  E    S      +S   +E   H. 
|---------------------------------|-------------------------| 
|-(15)r(15)p14----14h=15p14-------|-------------------------| 
|--------------16-----------16-14-|-13b14==(13)r(13)--------| 
|---------------------------------|------------------16-----| 
|---------------------------------|-------------------------| 
|---------------------------------|-------------------------| 
| 
|  +Q.          E +Q.           E   +W 
|---------------4-(4)-------------|-------------------------| 
|--(9)----------5-(5)-----------7-|-(7)---------------------| 
|--(9)----------4-(4)-----------7-|-(7)---------------------| 
|--(9)----------7-(7)-----------7-|-(7)---------------------| 
|--(7)----------4-(4)-----------5-|-(5)---------------------| 
|---------------------------------|-------------------------| 
 
 
           ~~~~                                      ~~~~~~~~ 
   Q      +Q    +E   Q   S      +S     +Q     E  E  +H 
|-----------------------------------|-----------------------| 
|-------------------14--14b15==(14)r|=(14)---12-------------| 
|-14b16--(14)--(14)-----------------|-----------14-(14)-----| 
|-----------------------------------|-----------------------| 
|-----------------------------------|-----------------------| 
|-----------------------------------|-----------------------| 
| 
|  H..                   E             +H..               E 
|--3---------------------0----------|--(0)------------------| 
|--3---------------------2----------|--(2)----------------2-| 
|--0---------------------2----------|--(2)----------------2-| 
|--0---------------------0----------|--(0)----------------2-| 
|-----------------------------------|---------------------0-| 
|--3---------------------3----------|--(3)------------------| 
 
 
 ~~~~~~                                                  ~~~~ 
   +E   E  E  E  E     +E   E  E    E     +E   E  E     +H 
|--------------------------------|------------14---------------| 
|---------12-14-14b15r(14)p12----|-----------------------------| 
|-(14)-14---------------------14-|-14b16-(14)----14b16-(14)----| 
|--------------------------------|-----------------------------| 
|--------------------------------|-----------------------------| 
|--------------------------------|-----------------------------| 
| 
|  +Q.        E +Q.            E   +W 
|------------------------------3-|-(3)-------------------------| 
|--(2)--------3-(3)------------3-|-(3)-------------------------| 
|--(2)--------2-(2)------------0-|-(0)-------------------------| 
|--(2)--------0-(0)------------0-|-(0)-------------------------| 
|--(0)---------------------------|-----------------------------| 
|-------------2-(2)------------3-|-(3)-------------------------| 
 
 
           ~~~~                    ~~~~     ~~~~~~ 
   Q      +Q    E  E  +S   E.      Q     E  E  Q.    e 
|-------------------------------|-12----14-17-17----17-| 
|-----------------14-(14)-15----|----------------------| 
|-14b16--(14)--14---------------|----------------------| 
|-------------------------------|----------------------| 
|-------------------------------|----------------------| 
|-------------------------------|----------------------| 
| 
|  H..                        E   +H..               E 
|--3--------------------------0-|-(0)------------------| 
|--3--------------------------2-|-(2)----------------2-| 
|--0--------------------------2-|-(2)----------------2-| 
|--0--------------------------0-|-(0)----------------2-| 
|-------------------------------|--------------------0-| 
|--3--------------------------3-|-(3)------------------| 
 
 
                                   ~~~     ~~~~~~~ 
   E   E  E  E  E     +E   E  E    Q    E  E  +Q    E  E 
|--------19-21-21b22r(21)p19----|-19---22-19-(19)--22-19-| 
|-----22---------------------22-|------------------------| 
|-------------------------------|------------------------| 
|-------------------------------|------------------------| 
|-------------------------------|------------------------| 
|-------------------------------|------------------------| 
| 
| +Q.        E +Q.            E   +Q.      E  +Q    E  E 
|-----------------------------3-|-(3)--------------------| 
|-(2)--------3-(3)------------3-|-(3)------2--(2)--------| 
|-(2)--------2-(2)------------0-|-(0)------2--(2)--------| 
|-(2)--------0-(0)------------0-|-(0)------2--(2)--------| 
|-(0)---------------------------|----------0--(0)---0--2-| 
|------------2-(2)------------3-|-(3)--------------------| 
 
 
  Gtr II 
   ~~~~~~~~~~~~~~~~~~~~~~~~~~~~~~~~~~~~~~~~~~~~~~~~~ 
   Q.      E  +Q     Q      Q.      E  E   E  E  E 
|-19------19-(19)---19---|-19------19-19--19-19-19-| 
|------------------------|-------------------------| 
|------------------------|-------------------------| 
|------------------------|-------------------------| 
|------------------------|-------------------------| 
|------------------------|-------------------------| 
| 
| Gtr III 
|  W                        E  Q.      H 
|------------------------|-----4s======9/----------| 
|------------------------|-----4s======9/----------| 
|------------------------|-----4s======9/----------| 
|------------------------|-------------------------| 
|------------------------|-------------------------| 
|------------------------|-------------------------| 
| 
| Gtr I 
|  E  E E  E  +E  E  E E   +E  E Q     Q      Q 
|------------------------|-------------------------| 
|------------------------|-------------------------| 
|--4--4-4--4--(4)-4--4-4-|-(4)-4-4-----4------4----| 
|--4--4-2--4--(4)-4--2-4-|-(4)-2-2-----2------2----| 
|--2--2-2--2--(2)-2--2-2-|-(2)-2-2-----2------2----| 
|------------------------|-------------------------| 
 
 
 ~~~~~~~~~~~~~~~~~~~~~~~~~~~~~~~~~~~~~~~~~~~~~~~~~~~~~~~~~~~~~~~ 
   E   E  E  E   E   E  E  E     E   E   E       E  E   E  E  E 
|-19--19-19-19--19--19-19-19-|--19--19--19------19-19--19-19-19-| 
|----------------------------|----------------------------------| 
|----------------------------|----------------------------------| 
|----------------------------|----------------------------------| 
|----------------------------|----------------------------------| 
|----------------------------|----------------------------------| 
| 
|  Q.        E  +E   E  E  E    +E   E  +S   E.     Q.        E 
|-19--------19-(19)-19-19-19-|-(19)-19-(19)-19-----19\----------| 
|----------------------------|----------------------------------| 
|----------------------------|----------------------------------| 
|----------------------------|----------------------------------| 
|----------------------------|----------------------------------| 
|----------------------------|----------------------------------| 
| 
|  E   E  E  E  +E   E  E  E    +E   E   Q          Q      Q 
|----------------------------|----------------------------------| 
|----------------------------|----------------------------------| 
|--4---4--4--4--(4)--4--4--4-|--(4)--4---4----------4------4----| 
|--4---4--2--4--(4)--4--2--4-|--(4)--2---2----------2------2----| 
|--2---2--2--2--(2)--2--2--2-|--(2)--2---2----------2------2----| 
|----------------------------|----------------------------------| 
 
 
   ~~~~~~~~~~~~~~~~~~~~~~~~~~~~~~~~~~~~~~~~~~~~~~~~~~~~~ 
   Q.       E  +E   E  E  E    E   E  E  E  E  E  E  E 
|-19-------19-(19)-19-19-19-|-19--19-19-19-19-19-19-19-| 
|---------------------------|--------------------------| 
|---------------------------|--------------------------| 
|---------------------------|--------------------------| 
|---------------------------|--------------------------| 
|---------------------------|--------------------------| 
| 
|                              ~~~~~~~~~~~~~~~~~~~~~~~~~ 
|  E  Q.       +E   Q     E    W 
|---------------------------|--------------------------| 
|-14s17-------(17)-15s===16-|--------------------------| 
|---------------------------|-16-----------------------| 
|---------------------------|--------------------------| 
|---------------------------|--------------------------| 
|---------------------------|--------------------------| 
| 
|  E  E  E  E  +E   E  E  E   +E   E  Q     Q     Q 
|---------------------------|--------------------------| 
|---------------------------|--------------------------| 
|--4--4--4--4--(4)--4--4--4-|-(4)--4--4-----4-----4----| 
|--4--4--2--4--(4)--4--2--4-|-(4)--2--2-----2-----2----| 
|--2--2--2--2--(2)--2--2--2-|-(2)--2--2-----2-----2----| 
|---------------------------|--------------------------| 
 
 
 ~~~~~~~~~~~~~~~~~~~~~~~~~~~~~~~~~~~~~~~~~~~~~~~~~~~~~~~~~~~ 
    E   E  E  E  E   E     E  E    +E   E  E  E  E  E   Q 
|--19--19-19-19-19--19----19-19-|-(19)-19-19-19-19-19--19----|| 
|-------------------------------|----------------------------|| 
|-------------------------------|----------------------------|| 
|-------------------------------|----------------------------|| 
|-------------------------------|----------------------------|| 
|-------------------------------|----------------------------|| 
| 
|~~~~~~                       ~~~~~~~~~ 
|  +Q      E  E  E   E  a  E  E    +H.                 +Q 
|-------------------------------|----------------------------|| 
|---------------14s=16-14s16----|----------------------------|| 
|-(16)----14s16--------------16-|-(16)----------------(16)\--|| 
|-------------------------------|----------------------------|| 
|-------------------------------|----------------------------|| 
|-------------------------------|----------------------------|| 
| 
|   E   E  E  E +E   E     E  E    +E   E  Q     Q      Q 
|-------------------------------|----------------------------|| 
|-------------------------------|----------------------------|| 
|---4---4--4--4-(4)--4-----4--4-|--(4)--4--4-----4------4----|| 
|---4---4--2--4-(4)--4-----2--4-|--(4)--4--4-----4------4----|| 
|---2---2--2--2-(2)--2-----2--2-|--(2)--2--2-----2------2----|| 
|-------------------------------|----------------------------|| 
 
 
  Gtr II 
                           ~~~~~~ 
   Q    Q    Q  Q     Q  E E +Q.    +E 
|-------------------|--------------------| 
|-------------------|--------------------| 
|-------------------|--------------------| 
|--5b6-------7------|-8----9-(9)----(9)\-| 
|-------------------|--------------------| 
|-------------------|--------------------| 
| 
| Gtr I 
|  Q    E E  Q  E E   Q  E E  Q   E  E 
|-------------------|--------------------| 
|-------------------|--------------------| 
|-12----x-x-11--x-x-|-8--x-x--9---x--x---| 
|--9----x-x-10--x-x-|-7--x-x--5---x--x---| 
|-------------------|--------------------| 
|-------------------|--------------------| 
 
 
                            ~~~~~~ 
   E E E E  E E E E   E E E E +Q   S S E 
|-------------------|--------------------| 
|-------------------|--------------------| 
|-------------------|--------------------| 
|----7p5----7-5-7-x-|-7-5----------------| 
|-------------------|-----7-7-(7)--5p4p3-| 
|-------------------|--------------------| 
| 
|  Q   E E  Q   E E   Q   E E  Q   E   E 
|-------------------|--------------------| 
|-------------------|--------------------| 
|-12---x-x-11---x-x-|-8---x-x--9---x---x-| 
|--9---x-x-10---x-x-|-7---x-x--5---x---x-| 
|-------------------|--------------------| 
|-------------------|--------------------| 
 
 
                          ~~~~~~ 
   E E Q    Q  Q     Q  E E +Q.    +E 
|------------------|--------------------| 
|------------------|--------------------| 
|------------------|--------------------| 
|--5h6------7------|-8----9-(9)----(9)\-| 
|------------------|--------------------| 
|------------------|--------------------| 
| 
|  Q   E E  Q  E E   Q  E E  Q   E  E 
|------------------|--------------------| 
|------------------|--------------------| 
|-12---x-x-11--x-x-|-8--x-x--9---x--x---| 
|--9---x-x-10--x-x-|-7--x-x--5---x--x---| 
|------------------|--------------------| 
|------------------|--------------------| 
 
 
                                ~~~~~~~~~~~~ 
  E  E   Q    E E E E   a E E E E +Q    Q 
|---------------------|----------------------|| 
|---------------------|----------------------|| 
|---------------------|-----7---9-(9)---9----|| 
|----5b6------5-0-7-5-|-7s9---9--------------|| 
|---------------------|----------------------|| 
|---------------------|----------------------|| 
| 
| E  E   E E  Q   E E     Q   E E  Q   +Q 
|---------------------|----------------------|| 
|---------------------|----------------------|| 
|-x-12---x-x-11---x-x-|---8---x-x--9---(9)\--|| 
|-x--9---x-x-10---x-x-|---7---x-x--5---(5)\--|| 
|---------------------|----------------------|| 
|---------------------|----------------------|| 
 
 
                      ~~~~~~~~~~      ~~~~~~~~~ 
  +S   E. E  E Q     +Q     +Q   E  E H 
|-------------------------|------7------------| 
|-------------------------|--------10---------| 
|-(9)\----x\---9b11--(9)--|-(9)-------9b11----| 
|---------x\-0------------|-------------------| 
|-------------------------|-------------------| 
|-------------------------|-------------------| 
 
 
 ~~~~~ 
  +E   E E    +E  E E E E    E E    +S  S E E Q. 
|-----10----------9---7---|------------------------| 
|-----------------------7-|-10---------------------| 
|-(9)----9b11r(9)---7-----|----9b11r(9)p7---7s9s===| 
|-------------------------|---------------9--------| 
|-------------------------|------------------------| 
|-------------------------|------------------------| 
 
 
                    ~~~~~~~~~ 
      |-3-| 
  E E S S S E E Q   E    +Q   S  T T E T T E T T S T T E 
|---------------------|----------------------------------| 
|---------------------|----------------------------------| 
|-6-7-6h7p6s4s6h7s=11-|-(11)--9h11p9s7h9p7s6h7p6s4h6p4s2-| 
|---------------------|----------------------------------| 
|---------------------|----------------------------------| 
|---------------------|----------------------------------| 
 
 
                                           ~ 
             |-3-|     |-3-| 
  E E +S  E. S S S E E S S S   E E E E E E Q 
|----------------------------|----------------| 
|----------------------------|----------------| 
|-2s4-(4)s2--4-2-0---0-------|----------------| 
|------------------4---4-2-0-|----------------| 
|----------------------------|-4-5-4-2---2-2--| 
|----------------------------|---------5------| 
 
 
  |----6----|         |----6----| |-3--| 
  S S S S S S S S S S S S S S S S S  S S S S 
|--------------------------------------------| 
|--------------------------------------------| 
|---------------------6h7h9p7p6s7h9h11p7s6h7-| 
|-------4h5h7p5-5s7-9------------------------| 
|-4h5h7--------------------------------------| 
|--------------------------------------------| 
 
 
  |-3-|      |----6-----|               |------6-------| 
  S S S S S  S S S  S S S +S   S  S  S  S  S  S  S  S  S 
|---------------------------------------------------------| 
|--------------7h8h10p8p7-(7)/---14h15h17p15p14s15h17h19p=| 
|-9p7p6s7h9h11--------------------------------------------| 
|---------------------------------------------------------| 
|---------------------------------------------------------| 
|---------------------------------------------------------| 
 
 
         T                         T     T        T                 T 
   |--3--|          |--3--|              |--3--| 
   S  S  S S  T  T  S  S  S  T  T  T  T  S  S  S  T  T  T  T  S  S  T  T  T  T 
|------------------------------------------------------------------------------| 
|-17p15-24p0h19p17p15h17h19p17p15-24p17-24p17p15-22p17h19p17p15h17-22p19p17p15-| 
|------------------------------------------------------------------------------| 
|------------------------------------------------------------------------------| 
|------------------------------------------------------------------------------| 
|------------------------------------------------------------------------------| 
 
 
   T           T              T              T 
   S  S  T  T  T  T  S  T  T  T  T  T  X  X  T  T  T  T  S  S  E  E 
|---------------------------------------------------------------------| 
|-20p19p17p15-20p17h19p17p15-20p17h19p17p15-20p17h19p17p15-20s26p19s==| 
|---------------------------------------------------------------------| 
|---------------------------------------------------------------------| 
|---------------------------------------------------------------------| 
|---------------------------------------------------------------------| 
 
 
                 |--3--|  |--3--|                        |--3--|      |--3---| 
  S S S  S E  E  E  E  E  E  E  E    S  E  S  +S   S  E  E  E  E     +E   E  E 
|------------------12-14-17-12h14-|-10-12-10-(10)-------10-12-12b14-(12)-10-12-| 
|-3p0-5s12p0-12-15----------------|---------------10h12------------------------| 
|---------------------------------|--------------------------------------------| 
|---------------------------------|--------------------------------------------| 
|---------------------------------|--------------------------------------------| 
|---------------------------------|--------------------------------------------| 
 
 
   |-3--|  |--3--| |--3--| |--3--| 
   E  E E  E  E  E E  E  E E  E  E   S E  S  S  S S S S  S  S  S E E 
|----------------------------------|---------------------------------|| 
|-10-12------10-12-----------------|---------------------------------|| 
|-------9-11-------9-11----9-11----|---9-12--------------------------|| 
|-----------------------12------12-|-9------12------9----------------|| 
|----------------------------------|-----------12p9---9h12-12----9-9-|| 
|----------------------------------|--------------------------10-----|| 
 
 
  Gtr IV 
  \0.5___/0___\0.5________________________________/ 
  a      E   +E     +Q     H          +H         +H 
|----------------------------------|-----------------------| 
|----------------------------------|-----------------------| 
|----------------------------------|-----------------------| 
|----------------------------------|-----------------------| 
|----------------------------------|-----------------------| 
|-0------0---(0)----(0)---{0}------|-({0})------({0})------| 
| 
| Gtr I 
|        Q           E  E  Q   E E     Q    E E   Q    E E 
|----------------------------------|-----------------------| 
|----------------------------------|-----------------------| 
|-------12-----------x--x-11---x-x-|---8----x-x---9----x-x-| 
|--------9-----------x--x-10---x-x-|---7----x-x---5----x-x-| 
|----------------------------------|-----------------------| 
|----------------------------------|-----------------------| 
 
 
        \2.5__/0_________________\1.5__/                \1.5__\2.5___/0.5_____ 
   +E   a     Q.      +H         S     E. +Q    +E. +S  a     S     +E. 
|------------------------------|---------------------------------------------| 
|------------------------------|---------------------------------------------| 
|------------------------------|---------------------------------------------| 
|------------------------------|------------------------0-----0-----(0)------| 
|-------0-----0-------(0)------|-0-----0--(0)---(0)-(0)----------------------| 
|-({0})------------------------|---------------------------------------------| 
| 
|   Q             E E  Q   E E   Q         E  E  Q            E            E 
|------------------------------|---------------------------------------------| 
|------------------------------|---------------------------------------------| 
|--12-------------x-x-11---x-x-|-8---------x--x--9------------x------------x-| 
|---9-------------x-x-10---x-x-|-7---------x--x--5------------x------------x-| 
|------------------------------|---------------------------------------------| 
|------------------------------|---------------------------------------------| 
 
 
                         \1.5___/        \2.5__/ 
  +W                    +E     +Q    +E  a     H 
|---------------------|------------------------------| 
|---------------------|------------------------------| 
|---------------------|------------------0-----0-----| 
|-(0)-----------------|-(0)----(0)---(0)-------------| 
|---------------------|------------------------------| 
|---------------------|------------------------------| 
| 
|      Q  E E  Q  E E    Q         E  E  Q       E E 
|---------------------|------------------------------| 
|---------------------|------------------------------| 
|-----12--x-x-11--x-x-|--8---------x--x--9-------x-x-| 
|------9--x-x-10--x-x-|--7---------x--x--5-------x-x-| 
|---------------------|------------------------------| 
|---------------------|------------------------------| 
 
 
                                 \1.5___/1___________\1.5 
  +H        +E  +E   E   E       a      H.          +E    +E 
|-----------------------------|--------------------------------|| 
|-------------------{0}-{0}---|-{0}----{0}----------(0)---(0)--|| 
|-(0)-------(0)-(0)-----------|--------------------------------|| 
|-----------------------------|--------------------------------|| 
|-----------------------------|--------------------------------|| 
|-----------------------------|--------------------------------|| 
| 
|  E    E E  E   Q       E  E    Q          E E Q   +Q 
|-----------------------------|--------------------------------|| 
|-----------------------------|--------------------------------|| 
|--x---12-x--x--11-------x--x-|--8----------x-x-9---(9)\-------|| 
|--x----9-x--x--10-------x--x-|--7----------x-x-5---(5)\-------|| 
|-----------------------------|--------------------------------|| 
|-----------------------------|--------------------------------|| 
 
 
  Gtr II 
  E E E    E +E  E E    E   +E  E     Q  E    Q   E 
|-7-7------7-(7)-7------7-|-(7)------------------------| 
|-7-7------7-(7)-7------7-|-(7)------10-------7--------| 
|-----9b11---------9b11---|-----9b11-----9b11-----9b11-| 
|-------------------------|----------------------------| 
|-------------------------|----------------------------| 
|-------------------------|----------------------------| 
| 
| Gtr I 
| E E E    E +E  E E    E   +E  E     Q  Q      Q 
|-------------------------|----------------------------| 
|-------------------------|----------------------------| 
|-4-4-4----4-(4)-4-4----4-|-(4)-4-----4--4------4------| 
|-4-4-2----4-(4)-4-2----4-|-(4)-2-----2--2------2------| 
|-2-2-2----2-(2)-2-2----2-|-(2)-2-----2--2------2------| 
|-------------------------|----------------------------| 
 
 
  E E E    E  E  E    E E    E    E E E    E E    Q 
|-7-7------7--7-------7-7-|-------7-7------7------7---| 
|-7-7------7--7-------7-7-|-------7-7------7------7---| 
|-----9b11-------9b11-----|--9b11-----9b11---9b11-----| 
|-------------------------|---------------------------| 
|-------------------------|---------------------------| 
|-------------------------|---------------------------| 
| 
| E E E    E +E  E    E E   +E    E Q      Q      Q 
|-------------------------|---------------------------| 
|-------------------------|---------------------------| 
|-4-4-4----4-(4)-4----4-4-|-(4)---4-4------4------4---| 
|-4-4-2----4-(4)-4----2-4-|-(4)---2-2------2------2---| 
|-2-2-2----2-(2)-2----2-2-|-(2)---2-2------2------2---| 
|-------------------------|---------------------------| 
 
 
   H..                E          H..            E 
|-17tr19-------------16tr19---|-16tr19---------14tr19--| 
|-----------------------------|------------------------| 
|-----------------------------|------------------------| 
|-----------------------------|------------------------| 
|-----------------------------|------------------------| 
|-----------------------------|------------------------| 
| 
|  E     E E E +E  E  E     E   +E     E Q  Q   Q 
|-----------------------------|------------------------| 
|-----------------------------|------------------------| 
|--4-----4-4-4-(4)-4--4-----4-|-(4)----4-4--4---4------| 
|--4-----4-2-4-(4)-4--2-----4-|-(4)----2-2--2---2------| 
|--2-----2-2-2-(2)-2--2-----2-|-(2)----2-2--2---2------| 
|-----------------------------|------------------------| 
 
 
   W                        W 
|-14tr19-----------------|-14tr19-----------|| 
|------------------------|------------------|| 
|------------------------|------------------|| 
|------------------------|------------------|| 
|------------------------|------------------|| 
|------------------------|------------------|| 
| 
|  E     E E E +E  E E E   +E     E Q  Q  Q 
|------------------------|------------------|| 
|------------------------|------------------|| 
|--4-----4-4-4-(4)-4-4-4-|-(4)----4-4--4--4-|| 
|--4-----4-2-4-(4)-4-2-4-|-(4)----2-2--2--2-|| 
|--2-----2-2-2-(2)-2-2-2-|-(2)----2-2--2--2-|| 
|------------------------|------------------|| 
 
 
  Gtr II 
                                                            ~ 
  Q  Q   Q  Q      E     +Q   E +H          Q  Q   Q  Q     W 
|---------------|-------------------------|---------------|-----------------| 
|---------------|-------------------------|---------------|-----------------| 
|---------------|-------------------------|---------------|-----------------| 
|-7------9------|-11b12r(11)--9-(9)-------|-7------9------|-9---------------| 
|---------------|-------------------------|---------------|-----------------| 
|---------------|-------------------------|---------------|-----------------| 
| 
| Gtr I 
|    PM|    PM|                     PM--|      PM|    PM|      PM--------| 
| Q  E E Q  E E    E      Q   E +E  E E E   Q  E E Q  E E   Q  E E E E E E 
|---------------|-------------------------|---------------|-----------------| 
|---------------|-------------------------|---------------|-----------------| 
|---------------|-------------------------|---------------|-----------------| 
|-7------9------|-12-----11---9-(9)-------|-7------9------|-9---------------| 
|--------9------|--7----------9-(9)-------|-0--0-0-0--0-0-|-7---------------| 
|-7--7-7-7--7-7-|--7----------7-(7)-7-7-7-|---------------|-0--0-0-0-0-0-0--| 
 
 
  Q  Q   Q  Q      E     +Q   E +H 
|---------------|-------------------------| 
|---------------|-------------------------| 
|---------------|-------------------------| 
|-7------9------|-11b12r(11)--9-(9)-------| 
|---------------|-------------------------| 
|---------------|-------------------------| 
| 
|    PM|    PM|                     PM--| 
| Q  E E Q  E E    E      Q   E +E  E E E 
|---------------|-------------------------| 
|---------------|-------------------------| 
|---------------|-------------------------| 
|-7------9------|-12-----11---9-(9)-------| 
|--------9------|--7----------9-(9)-------| 
|-7--7-7-7--7-7-|--7----------7-(7)-7-7-7-| 
 
 
                      ~~~~~~~~~~~~ 
  Q  Q   Q  Q      E  Q.      +H 
|---------------|------------------------| 
|---------------|------------------------| 
|---------------|------------------------| 
|-7------9------|------------------------| 
|---------------|--9h11------(11)--------| 
|---------------|------------------------| 
| 
|    PM|    PM|          PM-----------| 
| Q  E E Q  E E    Q     E E   E  E E E 
|---------------|------------------------| 
|---------------|------------------------| 
|---------------|------------------------| 
|-7------9------|------------------------| 
|-0--0-0-0--0-0-|-11---------------------| 
|---------------|--0-----0-0---0--0-0-0--| 
 
 
                                                              ~ 
  Q  Q   Q  Q      E     +Q   E +H          Q  Q   E  E Q     W 
|---------------|-------------------------|-----------------|-----------------| 
|---------------|-------------------------|-----------------|-----------------| 
|---------------|-------------------------|-----------------|-----------------| 
|-7------9------|-11b12r(11)--9-(9)-------|-7------9s11-----|-9---------------| 
|---------------|-------------------------|-----------------|-----------------| 
|---------------|-------------------------|-----------------|-----------------| 
| 
|    PM|    PM|                     PM--|      PM|      PM|      PM--------| 
| Q  E E Q  E E    E      Q   E +E  E E E   Q  E E E  E E E   Q  E E E E E E 
|---------------|-------------------------|-----------------|-----------------| 
|---------------|-------------------------|-----------------|-----------------| 
|---------------|-------------------------|-----------------|-----------------| 
|-7------9------|-12-----11---9-(9)-------|-7------9s11-----|-9---------------| 
|--------9------|--7----------9-(9)-------|-0--0-0-0----0-0-|-7---------------| 
|-7--7-7-7--7-7-|--7----------7-(7)-7-7-7-|-----------------|-0--0-0-0-0-0-0--| 
 
 
                                                        ~ 
  Q  Q   Q  Q     E E E E +H          Q  Q   E  E Q     W 
|---------------|-------------------|-----------------|-----------------|| 
|---------------|-------------------|-----------------|-----------------|| 
|---------------|-7-9---------------|-----------------|-----------------|| 
|-7------9------|-------9-(9)-------|-7------9s11-----|-9---------------|| 
|---------------|-------------------|-----------------|-----------------|| 
|---------------|-------------------|-----------------|-----------------|| 
| 
|    PM|    PM|               PM--|      PM|      PM|      PM--------| 
| Q  E E Q  E E   E Q   E  E  E E E   Q  E E E  E E E   Q  E E E E E E 
|---------------|-------------------|-----------------|-----------------|| 
|---------------|-------------------|-----------------|-----------------|| 
|---------------|-7-9---------------|-----------------|-----------------|| 
|-7------9------|-------9-(9)-9-----|-7------9s11-----|-9---------------|| 
|-7------7------|-7-7---7--7--7-----|-0--0-0-0----0---|-9---------------|| 
|-0--0-0-0--0-0-|-------0-(0)-0-0-0-|---------------7-|-7--7-7-7-7-7-7--|| 
 
 
  Gtr II 
   Q  Q    Q  Q      E     +Q    E  +H 
|-----------------|---------------------------| 
|-----------------|---------------------------| 
|-----------------|---------------------------| 
|--7-------9------|-11b12r(11)---9--(9)-------| 
|-----------------|---------------------------| 
|-----------------|---------------------------| 
| 
| Gtr III 
|  Q  Q    Q  Q      E     +Q    E  +H 
|-----------------|---------------------------| 
|-10------12------|-14b15r(14)--12-(12)-------| 
|-----------------|---------------------------| 
|-----------------|---------------------------| 
|-----------------|---------------------------| 
|-----------------|---------------------------| 
| 
| Gtr I 
|     PM|     PM|                       PM--| 
|  Q  E E  Q  E E    E      Q    E  +E  E E E 
|-----------------|---------------------------| 
|-----------------|---------------------------| 
|-----------------|---------------------------| 
|--7-------9------|-12-----11----9--(9)-------| 
|----------9------|--7-----------9--(9)-------| 
|--7--7-7--7--7-7-|--7-----------7--(7)-7-7-7-| 
 
 
                     ~~ 
   Q  Q    Q  Q      W 
|-----------------|------------------| 
|-----------------|------------------| 
|-----------------|------------------| 
|--7-------9------|--9---------------| 
|-----------------|------------------| 
|-----------------|------------------| 
| 
|                    ~~ 
|  Q  Q    Q  Q      W 
|-----------------|------------------| 
|-10------12------|-12---------------| 
|-----------------|------------------| 
|-----------------|------------------| 
|-----------------|------------------| 
|-----------------|------------------| 
| 
|     PM|     PM|       PM--------| 
|  Q  E E  Q  E E    Q  E E E E E E 
|-----------------|------------------| 
|-----------------|------------------| 
|-----------------|------------------| 
|--7-------9------|--9---------------| 
|--0--0-0--0--0-0-|--7---------------| 
|-----------------|--0--0-0-0-0-0-0--| 
 
 
   Q  Q    Q  Q      E     +Q    E  +H 
|-----------------|---------------------------| 
|-----------------|---------------------------| 
|-----------------|---------------------------| 
|--7-------9------|-11b12r(11)---9--(9)-------| 
|-----------------|---------------------------| 
|-----------------|---------------------------| 
| 
|  Q  Q    Q  Q      E     +Q    E  +H 
|-----------------|---------------------------| 
|-10------12------|-14b15r(14)--12-(12)-------| 
|-----------------|---------------------------| 
|-----------------|---------------------------| 
|-----------------|---------------------------| 
|-----------------|---------------------------| 
| 
|     PM|     PM|                       PM--| 
|  Q  E E  Q  E E    E      Q    E  +E  E E E 
|-----------------|---------------------------| 
|-----------------|---------------------------| 
|-----------------|---------------------------| 
|--7-------9------|-12-----11----9--(9)-------| 
|----------9------|--7-----------9--(9)-------| 
|--7--7-7--7--7-7-|--7-----------7--(7)-7-7-7-| 
 
 
                        ~~~~~~~~~~~~ 
   Q  Q    Q  Q      E  Q.      +H 
|-----------------|------------------------| 
|-----------------|------------------------| 
|-----------------|------------------------| 
|--7-------9------|------------------------| 
|-----------------|--9h11------(11)--------| 
|-----------------|------------------------| 
| 
|                       ~~~~~~~~~~~~ 
|  Q  Q    Q  Q      E  Q.      +H 
|-----------------|------------------------| 
|-10------12------|------------------------| 
|-----------------|-11h13------(13)--------| 
|-----------------|------------------------| 
|-----------------|------------------------| 
|-----------------|------------------------| 
| 
|     PM|     PM|          PM-----------| 
|  Q  E E  Q  E E    Q     E E   E  E E E 
|-----------------|------------------------| 
|-----------------|------------------------| 
|-----------------|------------------------| 
|--7-------9------|------------------------| 
|--0--0-0--0--0-0-|-11---------------------| 
|-----------------|--0-----0-0---0--0-0-0--| 
 
 
   Q  Q    Q  Q      E     +Q    E  +H 
|-----------------|---------------------------| 
|-----------------|---------------------------| 
|-----------------|---------------------------| 
|--7-------9------|-11b12r(11)---9--(9)-------| 
|-----------------|---------------------------| 
|-----------------|---------------------------| 
| 
|  Q  Q    Q  Q      E     +Q    E  +H 
|-----------------|---------------------------| 
|-10------12------|-14b15r(14)--12-(12)-------| 
|-----------------|---------------------------| 
|-----------------|---------------------------| 
|-----------------|---------------------------| 
|-----------------|---------------------------| 
| 
|     PM|     PM|                       PM--| 
|  Q  E E  Q  E E    E      Q    E  +E  E E E 
|-----------------|---------------------------| 
|-----------------|---------------------------| 
|-----------------|---------------------------| 
|--7-------9------|-12-----11----9--(9)-------| 
|----------9------|--7-----------9--(9)-------| 
|--7--7-7--7--7-7-|--7-----------7--(7)-7-7-7-| 
 
 
                       ~~ 
   Q  Q    E  E Q      W 
|-------------------|------------------| 
|-------------------|------------------| 
|-------------------|------------------| 
|--7-------9s11-----|--9---------------| 
|-------------------|------------------| 
|-------------------|------------------| 
| 
|                      ~~ 
|  Q  Q    E  E Q      W 
|-------------------|------------------| 
|-10------12s14-----|-12---------------| 
|-------------------|------------------| 
|-------------------|------------------| 
|-------------------|------------------| 
|-------------------|------------------| 
| 
|     PM|       PM|       PM--------| 
|  Q  E E  E  E E E    Q  E E E E E E 
|-------------------|------------------| 
|-------------------|------------------| 
|-------------------|------------------| 
|--7-------9s11-----|--9---------------| 
|--0--0-0--0----0-0-|--7---------------| 
|-------------------|--0--0-0-0-0-0-0--| 
 
 
   Q  Q    Q  Q      E  E E  E  +H 
|-----------------|-----------------------| 
|-----------------|-----------------------| 
|-----------------|--7--9-----------------| 
|--7-------9------|----------9--(9)-------| 
|-----------------|-----------------------| 
|-----------------|-----------------------| 
| 
|  Q  Q    Q  Q      E  E E  E  +H 
|-----------------|-10-12-----------------| 
|-10------12------|---------12-(12)-------| 
|-----------------|-----------------------| 
|-----------------|-----------------------| 
|-----------------|-----------------------| 
|-----------------|-----------------------| 
| 
|     PM|     PM|                   PM--| 
|  Q  E E  Q  E E    E  Q    E   E  E E E 
|-----------------|-----------------------| 
|-----------------|-----------------------| 
|-----------------|--7--9-----------------| 
|--7-------9------|----------9--(9)-9-----| 
|--7-------7------|--7--7----7---7--7-----| 
|--0--0-0--0--0-0-|----------0--(0)-0-0-0-| 
 
 
   Q  Q    E  E Q        H       Q  E E 
|---------------------|-----------------|| 
|---------------------|-----------------|| 
|---------------------|-------------5s9-|| 
|--7-------9s11-------|-----------------|| 
|---------------------|-----------------|| 
|---------------------|-----------------|| 
| 
|                        ~~~ 
|  Q  Q    E  E Q        W 
|---------------------|-----------------|| 
|-10------12s14-------|-12--------------|| 
|---------------------|-----------------|| 
|---------------------|--9--------------|| 
|---------------------|-----------------|| 
|---------------------|-----------------|| 
| 
|     PM| 
|  Q  E E  E  E E S S    Q.   E  H 
|---------------------|-----------------|| 
|---------------------|-----------------|| 
|---------------------|-----------------|| 
|--7-------9s11---7-7-|--7h===9--9------|| 
|--0--0-0--0----0-7-7-|--7h===9--9------|| 
|-----------------7-7-|--7---(7)-7------|| 
 
 
  Gtr II 
   T E.. E    E +Q   E    E   +Q     E    E +Q    E    E 
|----7--------7-(7)-------7-|-(7)---------7-(7)--------7-| 
|-10-7--------7-(7)-------7-|-(7)---------7-(7)--------7-| 
|--9-----9b11--------9b11---|--------9b11---------9b11---| 
|---------------------------|----------------------------| 
|---------------------------|----------------------------| 
|---------------------------|----------------------------| 
| 
| Gtr I 
|        PM---|      PM---|                     PM-----| 
|  Q     E    E  Q   E    E    E   Q      E +E  E E    E 
|---------------------------|----------------------------| 
|---------------------------|----------------------------| 
|---------------------------|----------------------------| 
|--7-------------9----------|-12--11------9-(9)----------| 
|----------------9----------|--7----------9-(9)----------| 
|--7-----7----7--7---7----7-|--7----------7-(7)-7-7----7-| 
 
 
  E E    E E E E E E      +E  E E    E Q   E E 
|-7------7-7---7-7------|-----------------------| 
|-7------7-7---7-7-9b10r|=(9)---9b10---7---7----| 
|---9b11-----9-----9b10r|=(9)-7-9b11p0-7---7----| 
|-----------------------|--------------------9--| 
|-----------------------|-----------------------| 
|-----------------------|-----------------------| 
| 
|        PM|     PM|            PM-----------| 
| Q      E E Q   E E       Q    E    E E E E E 
|-----------------------|-----------------------| 
|-----------------------|-----------------------| 
|-----------------------|-----------------------| 
|-7----------9----------|--9--------------------| 
|-0------0-0-0---0-0----|--7--------------------| 
|-----------------------|--0----0----0-0-0-0-0--| 
 
 
       ~~~~~~ 
  Q  E E +Q.    E    Q    E E +E  E E  E 
|-----------------|---------------------------| 
|-7--9-7-(7)------|--7----9-7-(7)-7-7-10b10.5-| 
|-7--9-7-(7)------|--7----9-7-(7)-7-7---------| 
|---------------9-|---------------------------| 
|-----------------|---------------------------| 
|-----------------|---------------------------| 
| 
|    PM|      PM|                 PM--| 
| Q  E E  Q   E E    E  Q   E +E  E E  E 
|-----------------|---------------------------| 
|-----------------|---------------------------| 
|-----------------|---------------------------| 
|-7-------9-------|-12-11---9-(9)-------------| 
|---------9-------|--7------9-(9)-------------| 
|-7--7-7--7---7-7-|--7------7-(7)-7-7--7------| 
 
 
  E  E      E  E E  E E E    E E E E E E   e E 
|-----------7----7----7-7-|--7---7---7----------| 
|-7-10b10.5---10---10---9-|----9---9---9/-19-x--| 
|-------------------------|---------------19-x--| 
|-------------------------|---------------------| 
|-------------------------|---------------------| 
|-------------------------|---------------------| 
| 
|           PM|       PM|        PM----------| 
| Q         E  E Q    E E    Q   E E E E   E E 
|-------------------------|---------------------| 
|-------------------------|---------------------| 
|-------------------------|---------------------| 
|-7--------------9--------|---------------------| 
|-0---------0--0-0----0-0-|-11------------------| 
|-------------------------|--0---0-0-0-0---0-0--| 
 
 
          ~~~~~~~ 
   Q   E  E  +Q.     E    Q     E  E  +Q          +E   E 
|----------------------|---------------------------------| 
|-19-----19-(19)-------|-19-------19-(19)--------(19)----| 
|-19-----19-(19)----21-|-19-------19-(19)b19.5---(19)----| 
|-----21---------------|-------21---------------------21-| 
|----------------------|---------------------------------| 
|----------------------|---------------------------------| 
| 
|      PM|        PM|                          PM-----| 
|  Q   E  E   Q   E  E    E  Q     E  +E       E   E   E 
|----------------------|---------------------------------| 
|----------------------|---------------------------------| 
|----------------------|---------------------------------| 
|--7----------9--------|-12-11-----9--(9)----------------| 
|-------------9--------|--7--------9--(9)----------------| 
|--7---7--7---7---7--7-|--7--------7--(7)------7---7---7-| 
 
 
   Q   E  E  +E  E  Q           E  Q         E  E  E  E  E 
|----------------------------|------------------------------| 
|-19-----19-(19)---19--------|----19-----------19-19----19--| 
|-19-----19-(19)---19b19.5---|----19b19.5------19-19----19--| 
|-----21--------21-----------|-21-----------21-------21-----| 
|----------------------------|------------------------------| 
|----------------------------|------------------------------| 
| 
|      PM|          PM-----|              PM------------| 
|  Q   E  E   E  E  E      E    Q         E  E  E  E  E  E 
|----------------------------|------------------------------| 
|----------------------------|------------------------------| 
|----------------------------|------------------------------| 
|--7----------9s11-----------|--9---------------------------| 
|--0---0--0---0-----0------0-|--7---------------------------| 
|----------------------------|--0---------0--0--0--0--0--0--| 
 
 
   E  E  E  E  E  E  E  E    E  E  E  E  E   E  E  E 
|-------------------------|--------------------------| 
|-19----19-19-19-19-19----|-19-19----19-19-----19-19-| 
|-19----19-19-19-19-19----|-19-19----19-19-----19-19-| 
|----21----------------21-|-------21--------21-------| 
|-------------------------|--------------------------| 
|-------------------------|--------------------------| 
| 
|        PM|         PM|                     PM---| 
|  Q     E  E  Q     E  E    E  Q     E  E   E  E  E 
|-------------------------|--------------------------| 
|-------------------------|--------------------------| 
|-------------------------|--7--9--------------------| 
|--7-----------9----------|-----------9-(9)--9-------| 
|--7-----------7----------|--7--7-----7--7---7-------| 
|--0-----0--0--0-----0--0-|-----------0-(0)--0--0--0-| 
 
 
                                      ~~~~~~~~~~~~ 
  E  E     E  E  E  E  E  E    Q      Q       +E   E  E  E 
|---------------------------|---------------------------22--|| 
|-0-22b24-22-22-22-22-22-22-|-22b24--22b24---(22)-------21--|| 
|---------------------------|-22b23--22b23---(22)-(0)-------|| 
|---------------------------|-------------------------------|| 
|---------------------------|-------------------------------|| 
|---------------------------|-------------------------------|| 
| 
|          PM|         PM|            PM----------------| 
| Q        E  E  E  E  E  E    Q      E    E   E   E  E  E 
|---------------------------|-------------------------------|| 
|---------------------------|-------------------------------|| 
|---------------------------|-------------------------------|| 
|-7--------------9s11-------|--9----------------------------|| 
|-0--------0--0--0-----0----|--9----------------------------|| 
|-------------------------7-|--7------7----7---7---7--7--7--|| 
 
 
   E     +E   E  E  E  E  E     E    E  E  E   E  E   Q. 
|-22---------------19-19-22----19-|-22-22-19-----19--22b24======| 
|-21b22-(21)-19-22-19-19-21b22-19-|-21-21-19--19-19-------------| 
|---------------22----------------|-------(0)-19----------------| 
|---------------------------------|-----------------------------| 
|---------------------------------|-----------------------------| 
|---------------------------------|-----------------------------| 
| 
|             PM|         PM---|                      PM------| 
|  Q          E  E  Q     E     E    E  Q      E +E   E     E E 
|---------------------------------|-----------------------------| 
|---------------------------------|-----------------------------| 
|---------------------------------|-----------------------------| 
|--7----------------9-------------|-12-11------9-(9)------------| 
|-------------------9-------------|--7---------9-(9)------------| 
|--7----------7--7--7-----7-----7-|--7---------7-(7)--7-----7-7-| 
 
 
                                                        ~~~~~~~~~~~ 
   +E   a  +E   E  E     +E   E  E     +E     E  E     +Q     +E   E  E E 
|-(22)-22r(22)-19--------------------------|------------------------------| 
|-----------------22b24r(22)-19------------|-22---------------------------| 
|-------------------------------21b23-(21)-|----21b23-(21)---(21)\-7s14-0-| 
|------------------------------------------|------------------------------| 
|------------------------------------------|------------------------------| 
|----------------------------------- 

	  

Solicitar el vídeo de "Motorcycle Driver" - Descargar Motorcycle Driver mp3

No existe una video leccione para esta canción

solicitar
140

Envie sus comentários.

0 comentários

 
LosAcordes
Buscar
auto avanzar rasgueos aumentar disminuir cambiar color esconder acordes gráficos
losacordes exhibir acordes losacordes youTube video losacordes ocultar tabs losacordes cambiar notación losacordes ir hacia arriba losacordes